PrimaNota.ru - самый крупный в мире бесплатный архив песенных текстов, аккордов, табулатур и нот


Oldfield Sally - Water Bearer - аккорды и текст, видео

Регистрация Запомнить меня
Войти через:  Facebook Google Twitter Vk Yandex Mail.ru

Oldfield Sally - Water Bearer - аккорды и текст, видео

Печатать
Просмотров: 102
Авторы музыки: Sally Oldfield
Авторы текста: Sally Oldfield
Water Bearer
Oldfield Sally
-----------------------------------------------------------------------------
                                          Artist - Sally Oldfield
                                         *************************
                                            Song - Water Bearer 
                                           *********************
                                           Album - Water Bearer 
                                          **********************
                                           Tabbed By - Ayreon77
                                          **********************
-----------------------------------------------------------------------------
Tuning = Standard


http://www.discogs.com/artist/91291-Sally-Oldfield


INTRO
******
Em    D       Em    D       Em
Water Bearer. Water bearing one
      D       Em  D  Em    D       Em
Water bearing one.   Water bearing one


--------------------------------------------
VERSE 1
********
      Am   Em        D           Em
I was born under the sign of the sun
      D       Em    D
Water bearer. Water bearing one
   Em       Am            Em         Am
My mama was young and the skies were rocking
       Em         D             Em
On the day that I first saw the light
      D       Em    D
Water bearer. Water bearing man
         Em    Am         Em     Am
With the dusty heart of a beggar woman
    Em        D      Em
I'm following you by moonlight
      D       Em    D
Water-bearer. Water-bearing man
        Em        Am               Em      Am
Now the rain's on fire through the redwood trees
      Em        D             Em
I can feel your blood flowing in me.
      D       Em    D
Water-bearer. Water-bearing man
Em    D       Em    D
Water-bearer. Water-bearing man
Em    D       Em    D       Em
Water-bearer. Water-bearing man


--------------------------------------------
VERSE 2
********
      Am   Em        D           Em
I was born under the sign of the sun
      D       Em    D
Water bearer. Water bearing one
   Em       Am            Em         Am
My mama was young and the skies were rocking
       Em         D             Em
On the day that I first saw the light
      D       Em    D
Water bearer. Water bearing man
         Em    Am         Em     Am
With the dusty heart of a beggar woman
    Em        D      Em
I'm following you by moonlight
      D       Em    D
Water-bearer. Water-bearing man
        Em        Am               Em      Am
Now the rain's on fire through the redwood trees
      Em        D             Em
I can feel your blood flowing in me.
      D       Em    D
Water-bearer. Water-bearing one
Em    D       Em    D
Water-bearer. Water-bearing one
Em    D       Em    D       Bm
Water-bearer. Water-bearing one


Bm

--------------------------------------------
BRIDGE 1
*********
Em                         Am
  Feel like the dry Sahara sand
e|-----------------s---|----s----|
B|-7--7-7--7-7-8-10\12-|-8-8\5-5-|
G|---------------------|---------|
D|---------------------|---------|
A|---CLASSICAL GUITAR--|---------|
E|---------------------|---------|

Em                             Am
  She cry for rain to cool the land
e|-5--5-5--5-5-3-2-0-3-2-5-3-|
B|---------------------------|
G|---------------------------|
D|---------------------------|
A|---------------------------|
E|---------------------------|

Am       Bm                  Am
Cool the flame thats burning me
e|-7--7-7--7-7-5-3-2--7-5--3-3--3-5-3-0-7-|-------------------|
B|----------------------------------------|-------------------|
G|----------------------------------------|-5--5-5--5-5-4-2-0-|
D|----------------------------------------|-------------------|
A|----------------------------------------|-------------------|
E|----------------------------------------|-------------------|

Am       Bm                  Em
Cool the flame thats burning me
e|-------|-----------|--------|
B|-------|-----------|--------|
G|-2-0---|---0-2-4-4-|-2--2-2-|
D|-----4-|-4---------|--------|
A|-------|-----------|--------|
E|-------|-----------|--------|

D   Em    D       Em    D       Em
Oh! Water bearer. Water bearing one

Em      C Em C Em


--------------------------------------------
CHORUS
*******
     Em                   D               Em    D
It's dark on the mountain waiting for the sun,  Whoo oooo
    Em       G                Em                   Bm
The devil is sleeping and the lord of the light is waking
    Em             Bm
The dawn is slowly breaking
Em
Hella Kiellessa niovya lo
       D     Bm
He ana hella kielleya niova nya


--------------------------------------------
BRIDGE 2
*********
Em               G
Morning comes so brave and free
        C        Em          G        Em
And the clinging clouds they turn and flee
          Em                   D      Bm
There's a rising wind and it's taking me
         Em
Ella galalea kolotya lo
       D     Bm       D     Bm
He ana hella kielessa niova nya
     Em
It's written on walls of stone in starlight
            Bm
"There is a path across the night"


--------------------------------------------
CHORUS
*******
     Em                   D               Em    D
It's dark on the mountain waiting for the sun,  Whoo oooo
    Em       G  Em  D         Em                   Bm
The devil is sleeping and the lord of the light is waking
    Em             Bm
The dawn is slowly breaking
Em
Hella Kiellessa niovya lo
       D     Bm
He ana hella kielleya niova nya


--------------------------------------------
BRIDGE 2
*********
Em               G         Em
Morning comes so brave and free
        Em  G    Em D        Em
And the clinging clouds they turn and flee
                      D        Bm
There's a rising wind and it's taking me
D        Em
Ella galalea kolotya lo
       D              Bm
He ana hella kielessa niova nya
     Em
It's written on walls of stone in starlight
D                  Bm
  "There is a path across the night"


C  Em  C  G   Repeat and fade



ENJOY..........
Добавлено: 02.01.2016
Вам также может быть интересно:
Другие материалы по этой песне:
  • Аккорды и текст

Страница создана 02.01.2016
http://primanota.ru/oldfield-sally/water-bearer-chords.htm
Привет, Гость.
Предлагаем пройти революционный курс по гитаре.
Подарок от PrimaNota.Ru, забирай!