PrimaNota.ru - самый крупный в мире бесплатный архив песенных текстов, аккордов, табулатур и нот


Old Mans Child - Return Of The Nights Creature - текст песни, таба, видео

Регистрация Запомнить меня
Войти через:  Facebook Google Twitter Vk Yandex Mail.ru

Old Mans Child - Return Of The Nights Creature - текст песни, таба, видео

Печатать
Просмотров: 87
		   Email me: iplaybass@ev1.net

song: Return of the Night's Creature
band: Old Man's Child
album: Pagan Prosperity
tuning: down a half-step, or play it at standard and just transcribe
        this tab a fret down.


guitar 1
|E -----------------------------------------------------------------|
|B -----------------------------------------4-----------------------|
|G ---------3---------------5-------------------5---7---3---5-------|
|D -----5-------7-------5-------7-------5-----------------------7---|
|A ---5---6---6---6---5---6---6---6---5---6---6---6---6---6---6---6-|
|E -3---------------3---------------3-------------------------------|
|
|guitar 2(second time only)
|E -----------------------------------------------------------------|
|B -----------------------------------------------------------------|
|G -----------------------------------------------------------------|
|D -----------------------------------------------------3---5---2---|
|A -5-5-5-----------5-5-5-----------5-5-5---------------1---3---0---|
|E -3-3-3-----------3-3-3-----------3-3-3---------------------------|


guitar 1				fill(second time only)
|E -----------------------------------|-----------------------------|
|B ---------4-----------4-------------|-----------------------------|
|G -----5-------5---7-------7-5-------|-----------------------------|
|D ---5-------------------------8-7---|-----------------------------|
|A -3-----3---3---3---5---5-----------|------3-6--------------------|
|E -----------------------------------|--2-5------------------------|
|
|guitar 2
|E -----------------------------------|-----------------------------|
|B -----------------------------------|-----------------------------|
|G -----------------------------------|-----------------------------|
|D -5----------7----------------------|-----------------------------|
|A -3----------5----------------------|------3-6--------------------|
|E -----------------------------------|--2-5------------------------|
then both guitars play that opening riff together.



right before the verse riff, do the fill


after that play this riff. its the same as the verse riff.
E --------------------------------------------------|
B --------------------------------------------------|
G --------------------------------------------------|
D --------------------------------------------------|
A -5---6---5-----5---6---5-8---9---8-----8---9---8--|
E ---3---3---3-3---3---3-----6---6---6-6---6---6----|


E ---------------------------------------------------------------------|
B ---------------------------------------------------------------------|
G ---------------------------------------------------------------------|
D ---------------------------------------------------------------------|
A -12----13----12-------12----13----12-5---6---5-----5---5---5-----3-6-|
E ----10----10----10-10----10----10------3---3---3-3---3---3---2-5-----|
 


pre chorus and chorus
guitar 1
repeat as needed
|E --------------------------------------------------------------|
|B --------------------------------------------------------------|
|G --------------------------------------------------------------|
|D -5~-8-7-4-5--8~-12-10-7-8--10~-13-12-9-10-6-5~-8-7-4-5--------|
|A --------------------------------------------------------------|
|E --------------------------------------------------------------|
|
|guitar 2
|E --------------------------------------------------------------|
|B --------------------------------------------------------------|
|G --------------------------------------------------------------|
|D --------------------------------------------------------------|
|A -5~----------8~------------10~--------------5~----------------|
|E -3~----------6~------------8~---------------3~----------------|



guitar 1
|E -----------------------------------------------------------------|
|B -----------------------------------------------------------------|
|G -----------------------------------------------------------------|
|D -8~-12-10-7-8--10~-13-12-9-10--12~-15-14-11-12--13-12-10-8-7-5-4-|
|A -----------------------------------------------------------------|
|E -----------------------------------------------------------------|
|
|guitar 2
|E -----------------------------------------------------------------|
|B -----------------------------------------------------------------|
|G -----------------------------------------------------------------|
|D ------------------------------------------------13-12-10-8-7-5-4-|
|A -8~------------10~-------------12~-------------------------------|
|E -6~------------8~--------------10~-------------------------------|



here's the riff that plays over and over again
many times during that interlude
E -------------------------------------------|
B -------------------------------------------|
G -----------8--------10--------11----------.|  this means a repeat
D -8-10-11-8---8-10-8----8-11-8----8-10-7---.|
A -------------------------------------------|
E -------------------------------------------|

E -------------------------------------------|
B -------------------------------------------|
G ---------5-------7-------8----------------.|
D -5-7-8-5---5-7-5---5-8-5---5-7-4----------.|
A -------------------------------------------|
E -------------------------------------------|

the rest of the song it a repeat of earlier riffs.
later.
     
Добавлено: 02.11.2013
Другие материалы по этой песне:
  • Аккорды и текст

Страница создана 17.04.2012
http://primanota.ru/old-mans-child/return-of-the-nights-creature-chords.htm
Привет, Гость.
Предлагаем пройти революционный курс по гитаре.
Подарок от PrimaNota.Ru, забирай!