PrimaNota.ru - самый крупный в мире бесплатный архив песенных текстов, аккордов, табулатур и нот


Old Gray - Vulcan Death Grip - таба, видео

Регистрация Запомнить меня
Войти через:  Facebook Google Twitter Vk Yandex Mail.ru

Old Gray - Vulcan Death Grip - таба, видео

Печатать
Просмотров: 141
Уроки эстрадного вокала в Санкт-Петербурге
-------------------------------------------------------------------------------
                             OLD GRAY - Vulcan Death Grip
-------------------------------------------------------------------------------
Tabbed by: Mike
E-mail:

Tuning: FACGCE
Guitar One (Cam)
Intro + verse
Strum these chords
e|-3---5---0--------------------------------------------------------------------|
B|-0---0---0--------------------------------------------------------------------|
G|-0---0---0--------------------------------------------------------------------|
D|-0---4---7--------------------------------------------------------------------|
A|-3---0---8--------------------------------------------------------------------|
E|-2---4---0--------------------------------------------------------------------|

Also throw in these little bits in the intro
e|-7---5---3--------------------------------------------------------------------|
B|-0---0---0--------------------------------------------------------------------|
G|-0---0---0--------------------------------------------------------------------|
D|-0---0---0--------------------------------------------------------------------|
A|-0---0---0--------------------------------------------------------------------|
E|-0---0---0--------------------------------------------------------------------|


"Well look at us nowwww"
e|---------------------------------------------------------------------------|
B|---------------------------------------------------------------------------|
G|---------------------------------------------------------------------------|
D|--------------------------------------------0h2p0-------------0h2p0--------|
A|-------------0h2p4---------------0-0-0-0h2h3------0-0-0-0h2h3--------------|
E|-0-0-0-0h2h4-------0-0-0-0h2h4---------------------------------------------|
^same thing throughout the bridge with the little caesura for "i don't know where i am..."

"MAYBE SOMEDAY YOU WILL LOVE ME" (strummed)
e|-0----0----0------------------------------------------------------------------|
B|-0----0----0------------------------------------------------------------------|
G|-0----9----0------------------------------------------------------------------|
D|-7----0----0------------------------------------------------------------------|
A|-8----0----3------------------------------------------------------------------|
E|-0----7----2------------------------------------------------------------------|

Guitar Two (Raph)
Intro is the same as guitar one, so here's the verse lead part
e|-------------------------------------------------------------------------------------|
B|--------------------------------------------------------12h14p12---------------------|
G|-9-9-9-9-9-9-9-7-7-7-7-7-7-7h9-5-12-12-12-12-12-12-12h14--------14-12----------------|
D|-------------------------------------------------------------------------------------|
A|-------------------------------------------------------------------------------------|
E|-------------------------------------------------------------------------------------|
Bridge
e|--------------------------------------------------------------------------------------|
B|-----------------------------------7--------------------------------------------------|
G|-9-9-9-9---9-9-9-9---7-7-7-7p5--777---------------------------------------------------|
D|--------------------------------------------------------------------------------------|
A|--------------------------------------------------------------------------------------|
E|--------------------------------------------------------------------------------------|
Before "maybe someday you will love me"
e|---0-----------------------------------------------------------------------|
B|----0----------------------------------------------------------------------|
G|-----0---------------------------------------------------------------------|
D|---------------------------------------------------------------------------|
A|---------------------------------------------------------------------------|
E|-0-----0-------------------------------------------------------------------|

e|--------------------------------------------------------------------------------|
B|---7-----------7-9-7-----7----------------9-9-9-7-------------------------------|
G|------9--7--5---------------9--7--5-5-5-5---------------------------------------|
D|-----------------------0--0--0--0-----------------------------------------------|
A|--------------------------------------------------------------------------------|
E|-0--0--0--0--0--0-0-------------------------------------------------------------|

My best guess for the last part. I can't hear it too well so if anyone would wanna 
elucidate it for me that'd be sick


e|---------------------------------------------------------------------------------------------|
B|-------------------------------------------------9-7--------------------------7777-9p7-------|
G|-5-5-5-5-5-5-5-7h9p7p5-7-5---5-5-5-5-5-5-7h9p7p5-----5h7-7-7-7-7-7-7-5h7-7-7----------9p7-5--|
D|---------------------------------------------------------------------------------------------|
A|---------------------------------------------------------------------------------------------|
E|---------------------------------------------------------------------------------------------|

Also, here's the bassline in the middle because I throw it in every time I play it on my own

E|---------------------------------------------------------------------------|
C|---------------------------------------------------------------------------|
G|----------0--0h2p0---------------------------------------------------------|
C|----0h2-4---------4p0h2-4h5-4-2-0-0----------------------------------------|
A|---------------------------------------------------------------------------|
F|-2h4-----------------------------------------------------------------------|
************************************

| /   slide up
| \   slide down
| h   hammer-on
| p   pull-off
| ~   vibrato
| +   harmonic
| x   Mute note
| b   Bend
| pb  Pre-bend
| br  Bend release
| pbr Pre-bend release
| brb Bend release bend

************************************
Добавлено: 27.12.2015
Другие материалы по этой песне:
  • Аккорды и текст

Страница создана 27.12.2015
http://primanota.ru/old-gray/vulcan-death-grip-chords.htm
Привет, Гость.
Предлагаем пройти революционный курс по гитаре.
Подарок от PrimaNota.Ru, забирай!