PrimaNota.ru - самый крупный в мире бесплатный архив песенных текстов, аккордов, табулатур и нот


Old Gray - I Still Remember Who I Was Last Summer - таба, видео

Регистрация Запомнить меня
Войти через:  Facebook Google Twitter Vk Yandex Mail.ru

Old Gray - I Still Remember Who I Was Last Summer - таба, видео

Печатать
Просмотров: 187
-------------------------------------------------------------------------------
                             Old Gray - I Still Remember Who I was Last Summer
-------------------------------------------------------------------------------
Tabbed by:
E-mail:

Tuning: Drop D (DADGBE)

Very easy song, but I find it almost cathartic to play. I hope you enjoy playing it as much as I do

Intro/Verse
e|---------------------------------------------------------------------------|
B|---------------------------------------------------------------------------|
G|-6/7-7/9--11-11h12-12/-7-7h9-9--6h7-6-6h7-6-6h7-6h7-6h7--------------------|
D|----------0----------------------------------------------------------------|
A|-------------------------------------0-----0-------------------------------|
E|---------------------------------------------------------------------------|
"You kissed me on the forehead"
e|-----------7-9/-5----------------------------------------------------------|
B|-8---12/-7-----------------------------------------------------------------|
G|---------------------------------------------------------------------------|
D|---------------------------------------------------------------------------|
A|---------------------------------------------------------------------------|
E|---------------------------------------------------------------------------|

Still working on the rest, but it should be done soon


************************************

| /   slide up
| \   slide down
| h   hammer-on
| p   pull-off
| ~   vibrato
| +   harmonic
| x   Mute note
| b   Bend
| pb  Pre-bend
| br  Bend release
| pbr Pre-bend release
| brb Bend release bend

************************************
Добавлено: 11.07.2015
Другие материалы по этой песне:
  • Аккорды и текст

Страница создана 11.07.2015
http://primanota.ru/old-gray/i-still-remember-who-i-was-last-summer-chords.htm
Привет, Гость.
Предлагаем пройти революционный курс по гитаре.
Подарок от PrimaNota.Ru, забирай!