PrimaNota.ru - самый крупный в мире бесплатный архив песенных текстов, аккордов, табулатур и нот


Old Gray - Clip Your Own Wings - таба, видео

Регистрация Запомнить меня
Войти через:  Facebook Google Twitter Vk Yandex Mail.ru

Old Gray - Clip Your Own Wings - таба, видео

Печатать
Просмотров: 181
Wrote this out by ear and by watching Cam play it on Table Three Media's channel.
Listen to the song to determine how many times you do each part.
And don't forget to play with all of your teen angst feels.

E|-----12-------12\11-11--------12--------12---|
B|---9----9---9----------9----9----9----9----9-|
G|-9--------9----------------------------------|
D|-------------------------11--------11--------|
A|---------------------------------------------|
E|---------------------------------------------|

E|-----12-------12/11-11--------12-------12/14-|
B|---9----9---9----------9----9----9---9-------|
G|---------------------------------------------|
D|-9--------9---------------9--------9---------|
A|---------------------------------------------|
E|---------------------------------------------|
End on (You have no idea how high I can fly)
E|-----12-------12---|
B|---9----9---9----9-|
G|-------------------|
D|-9--------9--------|
A|-------------------|
E|-------------------|

The acoustic version of this (https://www.youtube.com/watch?v=Unw9aM68aVI) isn't that different.
There's just no notes on the high E. Watch the video/go by ear for the order and all that.

Intro:
E|-----------------|
B|---9---9---9---9-|
G|-9---9---9---9---|
D|-----------------|
A|-----------------|
E|-----------------|
"And they said that one day I'd be fine"
E|-------------------------------------|
B|---9---9---9---9----9----9----9----9-|
G|-9---9---9---9-----------------------|
D|-----------------11---11---11---11---|
A|-------------------------------------|
E|-------------------------------------|

E|-----------------|
B|---9---9---9---9-|
G|-----------------|
D|-9---9---9---9---|
A|-----------------|
E|-----------------|
Добавлено: 25.10.2014
Другие материалы по этой песне:
  • Аккорды и текст

Страница создана 25.10.2014
http://primanota.ru/old-gray/clip-your-own-wings-chords.htm
Привет, Гость.
Предлагаем пройти революционный курс по гитаре.
Подарок от PrimaNota.Ru, забирай!