PrimaNota.ru - самый крупный в мире бесплатный архив песенных текстов, аккордов, табулатур и нот


Old Gray - An Epitaph - таба, видео

Регистрация Запомнить меня
Войти через:  Facebook Google Twitter Vk Yandex Mail.ru

Old Gray - An Epitaph - таба, видео

Печатать
Просмотров: 93
-------------------------------------------------------------------------------
                             An Epitaph - Old Gray
-------------------------------------------------------------------------------
Tabbed by: Matt

Tuning:Standard


Intro/Verse

e|------------------------------------------------------------------------|
B|12----12-12-12-12-12----12-12-12-12-1-----1--1--1--1--1-----1--1--1--1--|
G|0-----0--0--0--0--0-----0--0--0--0--0-----0--0--0--0--0-----0--0--0--0--|  
D|9-----9--9--9--9--9-----9--9--9--9--2-----2--2--2--2--2-----2--2--2--2--|
A|10----10-10-10-10-10----10-10-10-10-3-----3--3--3--3--3-----3--3--3--3--|
E|------------------------------------------------------------------------|

e|------------------------------------------------------------------------|
B|3-----3--3--3--3--3-----3--3--3--3--3-----3--3--3--3--3-----3--3--3--3--|
G|0-----0--0--0--0--0-----0--0--0--0--0-----0--0--0--0--0-----0--0--0--0--| Intro (x2)
D|4-----4--4--4--4--4-----4--4--4--4--4-----4--4--4--4--4-----4--4--4--4--| Verse (x4)
A|5-----5--5--5--5--5-----5--5--5--5--5-----5--5--5--5--5-----5--5--5--5--|
E|------------------------------------------------------------------------|



                                                          "...you were so -
e|------------------------------------------------------------------------|
B|1-----------------------------------------1-----1-----1-----1-----1-----|
G|0-----------------------------------------0-----0-----0-----0-----0-----|
D|2-----------------------------------------2-----2-----2-----2-----2-----|
A|3-----------------------------------------3-----3-----3-----3-----3-----|
E|------------------------------------------------------------------------|
 - young"
e|------------------------------------------------------------------------|
B|3-----------------------------------------3-----3-----3-----3-----3-----|
G|0-----------------------------------------0-----0-----0-----0-----0-----| (x4)
D|4-----------------------------------------4-----4-----4-----4-----4-----|
A|5-----------------------------------------5-----5-----5-----5-----5-----|
E|------------------------------------------------------------------------|


Instrumental

e|----------------|
B|1---------------|
G|0---------------| 
D|2---------------|
A|3---------------|
E|----------------|

(pause)

e|----------------------------------------------------------------|
B|--0-----0-----0---0-----0-----0---0-----0-----0---0-----0-----0-|
G|----0-----0---------0-----0---------0-----0---------0-----0-----|(x5)
D|------2-----2---------2-----2---------4-----4---------4-----4---|
A|3---------------3---------------5---------------5---------------|
E|----------------------------------------------------------------|


                                          "...so this is my goodbye to -
                                                 (Fast picking)
e|------------------------------------------------17--------------|
B|--0-----0-----0---0-----0-----0---0-----0-----0-----------------|
G|----0-----0---------0-----0---------0-----0---------------------|
D|------2-----2---------2-----2---------4-----4-------------------|
A|3---------------3---------------5-------------------------------|
E|----------------------------------------------------------------|
 - you"
e|15----------------------17------19----------------------20------|
B|----------------------------------------------------------------|
G|----------------------------------------------------------------|
D|----------------------------------------------------------------|
A|----------------------------------------------------------------|
E|----------------------------------------------------------------|

e|15--------------19--------------17------------------------------|
B|----------------------------------------------------------------|
G|----------------------------------------------------------------|
D|----------------------------------------------------------------|
A|----------------------------------------------------------------|
E|----------------------------------------------------------------|

e|15----------------------17------19------------------------------|
B|----------------------------------------------------------------|
G|----------------------------------------------------------------|
D|----------------------------------------------------------------|
A|----------------------------------------------------------------|
E|----------------------------------------------------------------|

e|15--------------19--------------17------------------------------|
B|----------------------------------------------------------------|
G|----------------------------------------------------------------|
D|----------------------------------------------------------------|
A|----------------------------------------------------------------|
E|----------------------------------------------------------------|

e|15--------------|
B|----------------|
G|----------------| ...fade out.
D|----------------|
A|----------------|
E|----------------|


************************************

| /   slide up
| \   slide down
| h   hammer-on
| p   pull-off
| ~   vibrato
| +   harmonic
| x   Mute note
| b   Bend
| pb  Pre-bend
| br  Bend release
| pbr Pre-bend release
| brb Bend release bend

************************************
Добавлено: 11.07.2015
Другие материалы по этой песне:
  • Аккорды и текст

Страница создана 11.07.2015
http://primanota.ru/old-gray/an-epitaph-chords.htm
Привет, Гость.
Предлагаем пройти революционный курс по гитаре.
Подарок от PrimaNota.Ru, забирай!