PrimaNota.ru - самый крупный в мире бесплатный архив песенных текстов, аккордов, табулатур и нот


Old Abram Brown - Mountain Lions - аккорды и текст, видео

Регистрация Запомнить меня
Войти через:  Facebook Google Twitter Vk Yandex Mail.ru

Old Abram Brown - Mountain Lions - аккорды и текст, видео

Печатать
Просмотров: 21
Mountain Lions
Old Abram Brown
-------------------------------------------------------------------------------
                         MOUNTAIN LIONS - Old Abram Brown
-------------------------------------------------------------------------------
Tabbed by: bengtaaron


Tuning: Standard (Capo 1)


Em  D  G

Em                  D              G
Mountain lions they ate my dog, and why?
Em                D               G
Why's it have to cost so much to die?
Em                D               G
Simple man with simple hands runs on
Em                 D      G
As the din of the solar wind
Em             D      G
Crooked in a crowded room
Em              D      G
Miniatures by quilted moon
Em                 D   G
They don't see the snow 
Em                   D              G
That's covering the coldness that grows

A       B   Em      G             D
Oh they go far and gather in the dark
     B           Em       G               D
And slide on the wood to find a place to walk
    B         Em       G              D
And why not stay? I know it won't be long
B        Em       G   D
Descending to the bedrock


Em  D  G

Transcribed trumpet solo (relative to Capo 1):

e|------------------------------------------------7p5------7p5-------------------------------|
B|-5-7h8-7--5-7-7/8---8h10-10-8--10p8-8--7-7/8--------8-7-------8-7-7/8----5-7h8-7--5-7-7/8--|
G|-------------------------------------------------------------------------------------------|
D|-------------------------------------------------------------------------------------------|
A|-------------------------------------------------------------------------------------------|
E|-------------------------------------------------------------------------------------------|


Em                  D              G
Mountain lions they ate my dog, and why?
Em                D               G
Why's it have to cost so much to die?
Em                D               G
Simple man with simple hands runs on
Em                 D      G
As the din of the solar wind


A       B   Em      G               D
Oh they go far and find a place to stalk
     B       Em           G               D
Kickin the leaves cuz the graveyard don't talk
  B         Em       G                D
Swallow, I pray, I know it's not that hard
B       Em        G   D
Descending to the bedrock


e|------------------------------------------------7p5------7p5-------------------------------|
B|-5-7h8-7--5-7-7/8---8h10-10-8--10p8-8--7-7/8--------8-7-------8-7-7/8----5-7h8-7--5-7-7/8--|
G|-------------------------------------------------------------------------------------------|
D|-------------------------------------------------------------------------------------------|
A|-------------------------------------------------------------------------------------------|
E|-------------------------------------------------------------------------------------------|


Em                  D              G
Mountain lions they ate my dog, and why?
Em                D               G
Why's it have to cost so much to die?
Добавлено: 21.06.2016
Другие материалы по этой песне:
  • Аккорды и текст

Страница создана 21.06.2016
http://primanota.ru/old-abram-brown/mountain-lions-chords.htm
Привет, Гость.
Предлагаем пройти революционный курс по гитаре.
Подарок от PrimaNota.Ru, забирай!