PrimaNota.ru - самый крупный в мире бесплатный архив песенных текстов, аккордов, табулатур и нот


Oktaves - Bungo Sa Bangin - бас-таба, видео

Регистрация Запомнить меня
Войти через:  Facebook Google Twitter Vk Yandex Mail.ru

Oktaves - Bungo Sa Bangin - бас-таба, видео

Печатать
Просмотров: 100
Tuning: Standard (EADG)

Pakingan nyo nlng ung Song para sa Timing, kasi First Bass Tabs ko to, hindi pa ko ganon karunong.

Yung ibang part medyo revised na.

Intro:

|------------------------------|--------------------------------------------|
|------------------------------|--------------------------------------------|
|------------------------------|--5--5--5-5-----5---3-----------------------|
|-5----3----1----0-------------|-----------------------5---3----1-1-1-1-1---|

Verse: 

|-------------------------------------------------|
|-------------------------------------------------|Repeat x2
|---------------------------3-5-5-5-5--5-3--------|
|-5----3----1----0------3-5----------------5-3--1-|

Chorus:
|------------------------|---------------------------------------|
|------------------------|---------------------------------------|
|-3-3-3------------------|---------------------------------------|
|-------3-3---2-2-2-1----|-5-5---3-3---2-2--1-1------------------|

Then:
Repeat lang yung verse ng 2x
Then Chorus na ulit

3rd Verse:
|---------------------------------------------------------|
|---------------------------------------------------------|
|---------------------------------3p-5p-5-5-5—5h3---------|
|-5-5---3-3---1-1---0-0-----3p-5p----------------5-3--1---|

(Eto ung part ng) Mga Bata....
|---------------------------------------------------------|
|---------------------------------------------------------|
|---------------------------------3p-5p-5-5-5—5h3---------|
|-5-5---3-3---1-1---0-0-----3p-5p----------------5-3--1---|

|--------------------------------------------|------------------------------|
|---7-5----------5---------------------------|--------------5h7-------------|
|-------7-5----5---5-------------------------|------3s5-5-5-----7-5s88888s10|
|-5----------3-------3----1-1-1---0----------|--3h5-------------------------|

Then balik na ulit sa Chorus

Chorus:
|------------------------|---------------------------------------|
|------------------------|---------------------------------------|
|-3-3-3------------------|---------------------------------------|
|-------3-3---2-2-2-1----|-5-5---3-3---2-2--1-1------------------|



Last Part:


|----------------------------------|
|----------------------------------| Repeat this until matapos ung kanta.
|----------------------------------|
|-5----3----2----1-----------------|


Salamat! 
"iammatt15"
Добавлено: 21.06.2013
Другие материалы по этой песне:
  • Аккорды и текст

Страница создана 21.06.2013
http://primanota.ru/oktaves/bungo-sa-bangin-chords.htm
Привет, Гость.
Предлагаем пройти революционный курс по гитаре.
Подарок от PrimaNota.Ru, забирай!