PrimaNota.ru - самый крупный в мире бесплатный архив песенных текстов, аккордов, табулатур и нот


Ok Go - Dont Ask Me - аккорды и текст, таба, видео

Регистрация Запомнить меня
Войти через:  Facebook Google Twitter Vk Yandex Mail.ru

Ok Go - Dont Ask Me - аккорды и текст, таба, видео

Печатать
Просмотров: 214
Авторы музыки: Damian Kulash, Jr.

Dont Ask Me
Ok Go
Band   Ok Go
Aong   Get over it
Tabbed By Jason Y 
Email RocksforBrains5k@aol.com with any questions

Intro
Start with some pick scraping

Verse
|----------------------------------------|
|----------------------------------------|
|-5-xxxxxx--------------------7-xx-10-xx-| repeat alot
|-5-xxxxxx--5-xxxxxx-7-xxxxxx-7-xx-10-xx-|
|-3-xxxxxx--5-xxxxxx-7-xxxxxx-5-xx--8-xx-|
|-----------3-xxxxxx-5-xxxxxx------------|

Play over verse the second time
|---------------------------------|
|-10-8-5--10-8-5--10-8-5-8-10-----|
|-----------------------------5-7-|
|---------------------------------|
|---------------------------------|
|---------------------------------|       (5)
                                          (5)
Chorus                        end on this (3) the second time
|-----------------------------------------------------------|
|-----------------------------------------------------------|
|-5-5-5-5-5-5----------------------------7-7-7-10-10-10-(5)-|X2 
|-5-5-5-5-5-5--5-5-5-5-5-5--7-7-7-7-7-7--7-7-7-10-10-10-(5)-|
|-3-3-3-3-3-3--5-5-5-5-5-5--7-7-7-7-7-7--5-5-5--8--8--8-(3)-|
|--------------3-3-3-3-3-3--5-5-5-5-5-5---------------------|

Thats pretty much all the main stuff, you can figure out
all the extras yourself cause im sick and i dont want to
     
Добавлено: 22.08.2013
Другие материалы по этой песне:
  • Аккорды и текст

Страница создана 05.05.2012
http://primanota.ru/ok-go/dont-ask-me-chords.htm
Привет, Гость.
Предлагаем пройти революционный курс по гитаре.
Подарок от PrimaNota.Ru, забирай!