PrimaNota.ru - самый крупный в мире бесплатный архив песенных текстов, аккордов, табулатур и нот


Ok Go - Bruise Grey - таба, видео

Регистрация Запомнить меня
Войти через:  Facebook Google Twitter Vk Yandex Mail.ru

Ok Go - Bruise Grey - таба, видео

Печатать
Просмотров: 80
Tuning: EADGBe (Standard)

/ or \= Slide
~ = Vibrato
~\ = Vibrato-heavy dive-bomb

Verses are just C# major played repeatedly, with this riff occasionally added in:

e|----------------|
B|------6-7-6-----|
G|----6-------6---|
D|--6-----------6-|
A|4---------------|
E|----------------|

Chorus 1:

e|----------------6-----------------------------2--------------|
B|-6--------------6--------------6--------------2--------------|
G|-6--------------6--------------6--------------3--------------|
D|-6--------------8--------------6--------------4--------------|
A|-4--------------8--------------4--------------4--------------|
E|----------------6-----------------------------2--------------|

Chorus 2 and 3:

e|-------------------------6-6-6-6-6-6-6-6-6-6-6-6-|
B|-6-6-6-6-6-6-6-6-6-6-6-6-6-6-6-6-6-6-6-6-6-6-6-6-|
G|-6-6-6-6-6-6-6-6-6-6-6-6-6-6-6-6-6-6-6-6-6-6-6-6-|
D|-6-6-6-6-6-6-6-6-6-6-6-6-8-8-8-8-8-8-8-8-8-8-8-8-|
A|-4-4-4-4-4-4-4-4-4-4-4-4-8-8-8-8-8-8-8-8-8-8-8-8-|
E|-------------------------6-6-6-6-6-6-6-6-6-6-6-6-|

e|-------------------------2-2-2-2-2-2-2-2-2-2-2-2-|
B|-6-6-6-6-6-6-6-6-6-6-6-6-2-2-2-2-2-2-2-2-2-2-2-2-|
G|-6-6-6-6-6-6-6-6-6-6-6-6-3-3-3-3-3-3-3-3-3-3-3-3-|
D|-6-6-6-6-6-6-6-6-6-6-6-6-4-4-4-4-4-4-4-4-4-4-4-4-|
A|-4-4-4-4-4-4-4-4-4-4-4-4-4-4-4-4-4-4-4-4-4-4-4-4-|
E|-------------------------2-2-2-2-2-2-2-2-2-2-2-2-|

Solo (after second chorus):

Uses octave fuzz, tremolo, delay, and probably some other stuff:

(timing is not exact;it's more important when playing this to have a feel for the song 
than to time it exactly)

e|---------------------------------------------------------------------|
B|-6/12~~~~~~~~\6~~~~~~~----6/12~~~\6/12~~~~~~~~~~~~~~~~~~-6~~~~~~~~6~\|
G|---------------------------------------------------------------------|
D|---------------------------------------------------------------------|
A|---------------------------------------------------------------------|
E|---------------------------------------------------------------------|
Добавлено: 22.11.2013
Другие материалы по этой песне:
  • Аккорды и текст

Страница создана 22.11.2013
http://primanota.ru/ok-go/bruise-grey-chords.htm
Привет, Гость.
Предлагаем пройти революционный курс по гитаре.
Подарок от PrimaNota.Ru, забирай!