PrimaNota.ru - самый крупный в мире бесплатный архив песенных текстов, аккордов, табулатур и нот


Ojba Rasta - Baldursbrá - таба, видео

Регистрация Запомнить меня
Войти через:  Facebook Google Twitter Vk Yandex Mail.ru

Ojba Rasta - Baldursbrá - таба, видео

Печатать
Просмотров: 104
-------------------------------------------------------------------------------
                             Baldursbrá - ojba rasta
-------------------------------------------------------------------------------
Tabbed by:Tómas Torrini Davíðsson
E-mail:

Tuning:EBGDAE

þetta eru bara riffin fyrir lagið set hitt inn

e|--------------------------------------------------------|
B|--------------------------------------------------------|
G|-----------7--------------------------------------------|
D|-------------7--------------------8---------------------|      x2
A|---------------8-----7-------------8--10------10-8------|
E|-----10----------------10--5-6-------------10-----------|

                gm
það er svo ósköp margt sem mig langar að segja þér
            F
og opinbera allt svo þú sjáir hvaða mann ég geymi hef
       Gm                      F
og með hugskeyti ég sendi þér Ást.... arbréf
                Gm
ég hafði hvorki trúað af ást við fyrstu sýn
          F
og það að örlagavefur skyldi draga mig til þín
   Gm                           F
og birtist þá mín Baldursbrá og þú varst mín.
Dm
ef ég mætti aðeins spyrja þig
   C
um örlítið, villtu með mér vera
Dm
Eg skal reyna betrumbæta mig
     C
rétt svolítið, á hverjum degi er að
Bb
rétt að gera stöðlum fyrir sig
C
en ég er fiðrildi í hvyrfilbil.


e|-----------15----17-15----------15------------|
B|-----17-18-------------18-17-18----18-17-15---|
G|----------------------------------------------| eða C Dm
D|----------------------------------------------|
A|----------------------------------------------|
E|----------------------------------------------|


e|----------------------------------------------------|
B|-------------15-17-18-------18-17-18-17-------------|
G|-------17-14----------------------------17-14-------|
D|----17----------------------------------------17----|     x2
A|----------------------------------------------------|
E|----------------------------------------------------|

e|-------------------------------------------------|
B|---17-18-17----------------17-18-17--------------|
G|-----------15-17-15-------------------17---------|
D|--------------------------------------17---------|
A|-------------------------------------------------|
E|-------------------------------------------------|

e|-----------15----17-15----------15------------|
B|-----17-18-------------18-17-18----18-17-15---|
G|----------------------------------------------|
D|----------------------------------------------|
A|----------------------------------------------|
E|----------------------------------------------|

þetta er svona það aðallega. kannski ég bæti hinu inn en efast um það :P


************************************

| /   slide up
| \   slide down
| h   hammer-on
| p   pull-off
| ~   vibrato
| +   harmonic
| x   Mute note
| b   Bend
| pb  Pre-bend
| br  Bend release
| pbr Pre-bend release
| brb Bend release bend

************************************
Добавлено: 01.05.2015
Другие материалы по этой песне:
  • Аккорды и текст

Страница создана 01.05.2015
http://primanota.ru/ojba-rasta/baldursbra-chords.htm
Привет, Гость.
Предлагаем пройти революционный курс по гитаре.
Подарок от PrimaNota.Ru, забирай!