PrimaNota.ru - самый крупный в мире бесплатный архив песенных текстов, аккордов, табулатур и нот


Ohio Players - Skin Tight - текст песни, бас-таба, видео

Регистрация Запомнить меня
Войти через:  Facebook Google Twitter Vk Yandex Mail.ru

Ohio Players - Skin Tight - текст песни, бас-таба, видео

Печатать
Просмотров: 50
-------------------------------------------------------------------------------
                             Skin Tight - Ohio Players
-------------------------------------------------------------------------------
See someone play:
https://www.youtube.com/watch?v=7Vze_DGVTjQ
Bridge at: 3:29

Main Riff
G|-----------------|-------------------|
D|--7-5-7----------|-7-5-7-------------|
A|---------0-3-5-0-|-------3-3-5-3-0-0-|
E|-----------------|-------------------|

Bridge:                                 (nineteen)   
G|-----------------|-------9-10-11-----|-19-19-----7-|-12-12-11-11--19-19-------|
D|-------------7-8-|---------------0-0-|-------0-0---|-------------------000----|
A|------7-8-10-----|-8-7-6-------------|-------------|--------------------------|
E|-8-10------------|-------------------|-------------|-----------------------7--| Then play again

Back to main riff
G|----7/--|  
D|--5-----|
A|--------|
E|--------|


| /  slide up
| \  slide down
| h  hammer-on
| p  pull-off
| ~  vibrato
| +  harmonic
| x  Mute note
===============================================================================
Добавлено: 30.10.2015
Вам также может быть интересно:
Другие материалы по этой песне:

Страница создана 05.08.2013
http://primanota.ru/ohio-players/skin-tight-chords.htm
Привет, Гость.
Предлагаем пройти революционный курс по гитаре.
Подарок от PrimaNota.Ru, забирай!