PrimaNota.ru - самый крупный в мире бесплатный архив песенных текстов, аккордов, табулатур и нот


Ohio Players - Fire - текст песни, таба, бас-таба, видео

Регистрация Запомнить меня
Войти через:  Facebook Google Twitter Vk Yandex Mail.ru

Ohio Players - Fire - текст песни, таба, бас-таба, видео

Печатать
Просмотров: 171
Авторы: Marshall Jones, Leroy Bonner, Billy Beck, James "Diamond" Williams, Ralph "Pee Wee" Middlebrooks, Clarence Satchell, Marvin "Merv" Pierce

FIRE

As recorded by Ohio Players
(From the 1974 Album FIRE)


Words and Music by James Williams, Clarence Satchell, Leroy Bonner, Marshall Jones, Ralph Middlebrooks, 
Marvin Pierce & William Beck

Transcribed by Slowhand


Gtr I (E A D G B E) - 'Horns'
Gtr II (E A D G B E) - 'Leroy "Sugarfoot" Bonner - Electric Guitar'
Gtr III (E A D G B E) - 'Leroy "Sugarfoot" Bonner - Electric Guitar'
Gtr IV (E A D G B E) - 'Leroy "Sugarfoot" Bonner - Electric Guitar'


 Intro
  Q=104
                 C9
 4/4
  Gtr I (Horns arr. for Gtr.)
  Wx4              S  S  E  S  S E Q    S  S E
|------------||--------------------------------|
|------------||o-------------------------------|
|------------||---17-17----15-15-------15-17---|
|------------||--------------------------------|
|------------||o-------------------------------|
|------------||--------------------------------|
|
| Gtr II (El. Gtr.)
| Wx4              E     E  e    e e E  e    e
|------------||--------------------------------|
|------------||o-------------------------------|
|------------||-------------7----7-7----7----7-|
|------------||---------10--8----7-8----8----7-|
|------------||o-------------------------------|
|------------||--/12---------------------------|


   S S  S  S Q    S  E.       S  E.
|-------------------15----------17----|
|-16---15-16-----16-16-------18-18----|
|------14-15-----15----------17-------|
|------16-17--------------------------|
|-------------------------------------|
|-------------------------------------|
|
|  e    E    e e  e     S  S  E     E
|-------------------------------------|
|-------------------------------------|
|--7---------7-7--7--------9--------x-|
|--8---------8-7--8-------10--------x-|
|-------------------------------------|
|-------------------------------------|


    e  Q.      +H           +H.              Q
|--17-15------(15)-------|-(15)-------------------||
|--18-16------(16)-------|-(16)------------------o||
|------------------------|------------------------||
|------------------------|------------------------||
|------------------------|-----------------------o||
|------------------------|------------------------||
|
|   E  E  e e   e  E e e     e  E e e e S  S E E
|------------------------|------------------------||
|------------------------|-----------------------o||
|---------7-7---7----7-7-|---7----7-7-7----9---x--||
|-----10--8-7---8----8-7-|---8----8-7-8---10---x--||
|------------------------|-----------------------o||
|-/12--------------------|------------------------||
|
| Gtr III (El. Gtr.)
|   W                        W
|------------------------|------------------------||
|------------------------|-----------------------o||
|------------------------|------------------------||
|------------------------|------------------------||
|------------------------|-----------------------o||
|------------------------|------------------------||


 Chorus
  C9
    W                  W
|--------------------|--------------------|
|--------------------|--------------------|
|--------------------|--------------------|
|--------------------|--------------------|
|--------------------|--------------------|
|--------------------|--------------------|
|
|   E  E e e e E e e   e E e e e S  S E E
|--------------------|--------------------|
|--------------------|--------------------|
|--------7-7-7-x-7-7-|-7-x-7-7-7----9---x-|
|-----10-8-7-8-x-8-7-|-8-x-8-7-8---10---x-|
|--------------------|--------------------|
|-/12----------------|--------------------|
|
|   H        Q   E E   E E Q   H
|--------------------|--------------------|
|--------------------|--------------------|
|--------------------|--------------------|
|--------------------|--------------------|
|--------------------|--------------------|
|----------------8-6-|-8------------------|


  Gtr II
    E  E e e e E e e   e E e e e S  S E E
|--------------------|--------------------|
|--------------------|--------------------|
|--------7-7-7-x-7-7-|-7-x-7-7-7----9---x-|
|-----10-8-7-8-x-8-7-|-8-x-8-7-8---10---x-|
|--------------------|--------------------|
|-/12----------------|--------------------|
|
| Gtr III
|   H        Q   E E   E E Q   H
|--------------------|--------------------|
|--------------------|--------------------|
|--------------------|--------------------|
|--------------------|--------------------|
|--------------------|--------------------|
|----------------8-6-|-8------------------|


    E  E e e e E e e   e E e e e S  S E E
|--------------------|--------------------|
|--------------------|--------------------|
|--------7-7-7-x-7-7-|-7-x-7-7-7----9---x-|
|-----10-8-7-8-x-8-7-|-8-x-8-7-8---10---x-|
|--------------------|--------------------|
|-/12----------------|--------------------|
|
|   H        Q   E E   E E Q   H
|--------------------|--------------------|
|--------------------|--------------------|
|--------------------|--------------------|
|--------------------|--------------------|
|--------------------|--------------------|
|----------------8-6-|-8------------------|


  Gtr I
    W                  H       Q      E  e
|--------------------|---------------------||
|--------------------|------------------10-||
|--------------------|---------------------||
|--------------------|---------------------||
|--------------------|---------------------||
|--------------------|---------------------||
|
| Gtr II
|   E  E e e e E e e   e E e e e S  S E  E
|--------------------|---------------------||
|--------------------|---------------------||
|--------7-7-7-x-7-7-|-7-x-7-7-7----9----x-||
|-----10-8-7-8-x-8-7-|-8-x-8-7-8---10----x-||
|--------------------|---------------------||
|-/12----------------|---------------------||
|
| Gtr III
|   H        Q   E E   E E Q   H
|--------------------|---------------------||
|--------------------|---------------------||
|--------------------|---------------------||
|--------------------|---------------------||
|--------------------|---------------------||
|----------------8-6-|-8-------------------||


 1st Verse
    Q     e e  Q   e  e   S  S E Q   Q       S S S S
|-----------------------|--------------------------8--|
|--11----10-8-10---8----|-8-10-------------------8----|
|--------------------10-|----------------------9------|
|-----------------------|-------------------10--------|
|-----------------------|-----------------------------|
|-----------------------|-----------------------------|
|
|   E  E  e e  e E e  e   e    E e e e S  S  E   E
|-----------------------|-----------------------------|
|-----------------------|-----------------------------|
|---------7-7--7-x-7--7-|-7----x-7-7-7----9------x----|
|-----10--8-7--8-x-8--7-|-8----x-8-7-8---10------x----|
|-----------------------|-----------------------------|
|-/12-------------------|-----------------------------|
|
|   H          Q   E  E   E    E Q   H
|-----------------------|-----------------------------|
|-----------------------|-----------------------------|
|-----------------------|-----------------------------|
|-----------------------|-----------------------------|
|-----------------------|-----------------------------|
|------------------8--6-|-8---------------------------|


    S S  S S Q   H           S S E Q   Q      e  e
|-------------------------|----8-------------------|
|-----8-11----------------|-11----------------8-10-|
|-------------------------|------------------------|
|-------------------------|------------------------|
|-------------------------|------------------------|
|-------------------------|------------------------|
|
|   E    E   e e E  E E E    E   E e e e S  S E  E
|-------------------------|------------------------|
|-------------------------|------------------------|
|------------7-7-7\-x-----|------x-7-7-7----9----x-|
|-------10---8-7-8\-x-----|------x-8-7-8---10----x-|
|-------------------------|------------------------|
|-/12-----------------8-6-|--8---------------------|
|
|   H            Q    E E    E   E Q   H
|-------------------------|------------------------|
|-------------------------|------------------------|
|-------------------------|------------------------|
|-------------------------|------------------------|
|-------------------------|------------------------|
|---------------------8-6-|--8---------------------|


    Q     e e  Q    e  e   S  S E Q   Q       S S S S
|------------------------|--------------------------8--|
|--11----10-8-10----8----|-8-10-------------------8----|
|---------------------10-|----------------------9------|
|------------------------|-------------------10--------|
|------------------------|-----------------------------|
|------------------------|-----------------------------|
|
|   E  E  e e  E  E E  E   E    E e e e S  S  E   E
|------------------------|-----------------------------|
|------------------------|-----------------------------|
|---------7-7--7\-x------|------x-7-7-7----9------x----|
|-----10--8-7--8\-x------|------x-8-7-8---10------x----|
|------------------------|-----------------------------|
|-/12---------------8--6-|-8---------------------------|
|
|   H          Q    E  E   E    E Q   H
|------------------------|-----------------------------|
|------------------------|-----------------------------|
|------------------------|-----------------------------|
|------------------------|-----------------------------|
|------------------------|-----------------------------|
|-------------------8--6-|-8---------------------------|


    S S  S S Q   H           S S E Q   Q       e  e
|-------------------------|----8--------------11-13-|
|-----8-11----------------|-11----------------11-13-|
|-------------------------|-------------------12-14-|
|-------------------------|-------------------------|
|-------------------------|-------------------------|
|-------------------------|-------------------------|
|
|   E    E   e e E  E E E    E   E e e e S  S  E  E
|-------------------------|-------------------------|
|-------------------------|-------------------------|
|------------7-7-7\-x-----|------x-7-7-7----9-----x-|
|-------10---8-7-8\-x-----|------x-8-7-8---10-----x-|
|-------------------------|-------------------------|
|-/12-----------------8-6-|--8----------------------|
|
|   H            Q    E E    E   E Q   H
|-------------------------|-------------------------|
|-------------------------|-------------------------|
|-------------------------|-------------------------|
|-------------------------|-------------------------|
|-------------------------|-------------------------|
|---------------------8-6-|--8----------------------|


    Q     e  e  Q     e  e    S  S E Q   Q       S S S S
|--15----13-11-13----11--8-|-11-13---------------------8--|
|--16----13-11-13----11-10-|-11-13-------------------8----|
|--15----14-12-14----12-10-|-12-14-----------------9------|
|--------------------------|--------------------10--------|
|--------------------------|------------------------------|
|--------------------------|------------------------------|
|
|   E  E  e  e  E  E  E  E    E    E e e e S  S  E   E
|--------------------------|------------------------------|
|--------------------------|------------------------------|
|---------7--7--7\-x-------|-------x-7-7-7----9------x----|
|-----10--8--7--8\-x-------|-------x-8-7-8---10------x----|
|--------------------------|------------------------------|
|-/12-----------------8--6-|--8---------------------------|
|
|   H           Q     E  E    E    E Q   H
|--------------------------|------------------------------|
|--------------------------|------------------------------|
|--------------------------|------------------------------|
|--------------------------|------------------------------|
|--------------------------|------------------------------|
|---------------------8--6-|--8---------------------------|


    S S  S S Q   H           S  S E Q   Q       e  e
|-------------------------|-13-15--------------11-13-|
|-----8-11----------------|-11-13--------------11-13-|
|-------------------------|--------------------12-14-|
|-------------------------|--------------------------|
|-------------------------|--------------------------|
|-------------------------|--------------------------|
|
|   E    E   e e E  E E E    E    E e e e S  S  E  E
|-------------------------|--------------------------|
|-------------------------|--------------------------|
|------------7-7-7\-x-----|-------x-7-7-7----9-----x-|
|-------10---8-7-8\-x-----|-------x-8-7-8---10-----x-|
|-------------------------|--------------------------|
|-/12-----------------8-6-|--8-----------------------|
|
|   H            Q    E E    E    E Q   H
|-------------------------|--------------------------|
|-------------------------|--------------------------|
|-------------------------|--------------------------|
|-------------------------|--------------------------|
|-------------------------|--------------------------|
|---------------------8-6-|--8-----------------------|


    Q     e  e  Q     e  e    S  S E Q   Q       S S S S
|--15----13-11-13----11--8-|-11-13---------------------8--|
|--16----13-11-13----11-10-|-11-13-------------------8----|
|--15----14-12-14----12-10-|-12-14-----------------9------|
|--------------------------|--------------------10--------|
|--------------------------|------------------------------|
|--------------------------|------------------------------|
|
|   E  E  e  e  E  E  E  E    E    E e e e S  S  E   E
|--------------------------|------------------------------|
|--------------------------|------------------------------|
|---------7--7--7\-x-------|-------x-7-7-7----9------x----|
|-----10--8--7--8\-x-------|-------x-8-7-8---10------x----|
|--------------------------|------------------------------|
|-/12-----------------8--6-|--8---------------------------|
|
|   H           Q     E  E    E    E Q   H
|--------------------------|------------------------------|
|--------------------------|------------------------------|
|--------------------------|------------------------------|
|--------------------------|------------------------------|
|--------------------------|------------------------------|
|---------------------8--6-|--8---------------------------|


    S S  S S Q   H           S  S E Q   Q       e  e
|-------------------------|-13-15--------------11-13-||
|-----8-11----------------|-11-13--------------11-13-||
|-------------------------|--------------------12-14-||
|-------------------------|--------------------------||
|-------------------------|--------------------------||
|-------------------------|--------------------------||
|
|   E    E   e e E  E E E    E    E e e e S  S  E  E
|-------------------------|--------------------------||
|-------------------------|--------------------------||
|------------7-7-7\-x-----|-------x-7-7-7----9-----x-||
|-------10---8-7-8\-x-----|-------x-8-7-8---10-----x-||
|-------------------------|--------------------------||
|-/12-----------------8-6-|--8-----------------------||
|
|   H            Q    E E    E    E Q   H
|-------------------------|--------------------------||
|-------------------------|--------------------------||
|-------------------------|--------------------------||
|-------------------------|--------------------------||
|-------------------------|--------------------------||
|---------------------8-6-|--8-----------------------||


 Chorus
  C9
    Q     e  e  Q     e  e    S  S E Q   Q       S S S S
|--15----13-11-13----11--8-|-11-13---------------------8--|
|--16----13-11-13----11-10-|-11-13-------------------8----|
|--15----14-12-14----12-10-|-12-14-----------------9------|
|--------------------------|--------------------10--------|
|--------------------------|------------------------------|
|--------------------------|------------------------------|
|
|   E  E  e  e  E  E  E  E    E    E e e e S  S  E   E
|--------------------------|------------------------------|
|--------------------------|------------------------------|
|---------7--7--7\-x-------|-------x-7-7-7----9------x----|
|-----10--8--7--8\-x-------|-------x-8-7-8---10------x----|
|--------------------------|------------------------------|
|-/12-----------------8--6-|--8---------------------------|
|
|   H           Q     E  E    E    E Q   H
|--------------------------|------------------------------|
|--------------------------|------------------------------|
|--------------------------|------------------------------|
|--------------------------|------------------------------|
|--------------------------|------------------------------|
|---------------------8--6-|--8---------------------------|


    S S  S S Q   H           S  S E Q   H
|-------------------------|-13-15------------------|
|-----8-11----------------|-11-13------------------|
|-------------------------|------------------------|
|-------------------------|------------------------|
|-------------------------|------------------------|
|-------------------------|------------------------|
|
|   E    E   e e E  E E E    E    E e e e S  S E E
|-------------------------|------------------------|
|-------------------------|------------------------|
|------------7-7-7\-x-----|-------x-7-7-7----9---x-|
|-------10---8-7-8\-x-----|-------x-8-7-8---10---x-|
|-------------------------|------------------------|
|-/12-----------------8-6-|--8---------------------|
|
|   H            Q    E E    E    E Q   H
|-------------------------|------------------------|
|-------------------------|------------------------|
|-------------------------|------------------------|
|-------------------------|------------------------|
|-------------------------|------------------------|
|---------------------8-6-|--8---------------------|


    e  S  S  e E  e  S  S  e E    e S  S  e E  e S  S  S  E.
|---8-----8--8----8-----8--8---|--8----8--8----8----8--8-10----|
|--11----11-11---11----11-11---|-11---11-11---11---11-11-13----|
|--12----12-12---12----12-12---|-12---12-12---12---12-12-14----|
|------------------------------|-------------------------------|
|------------------------------|-------------------------------|
|------------------------------|-------------------------------|
|
|   E  E     e e  E  E     E E    E E     e e  e S  S  E     E
|------------------------------|-------------------------------|
|------------------------------|-------------------------------|
|------------7-7--7\-x---------|----x-----7-7--7----9--------x-|
|-----10-----8-7--8\-x---------|----x-----8-7--8---10--------x-|
|------------------------------|-------------------------------|
|-/12----------------------8-6-|--8----------------------------|
|
|   H             Q        E E    E E     Q    H
|------------------------------|-------------------------------|
|------------------------------|-------------------------------|
|------------------------------|-------------------------------|
|------------------------------|-------------------------------|
|------------------------------|-------------------------------|
|--------------------------8-6-|--8----------------------------|


    e  S  S  e E  e  S  S  e E    e S  S  e E  e S  S  S  E.
|---8-----8--8----8-----8--8---|--8----8--8----8----8--8-10----|
|--11----11-11---11----11-11---|-11---11-11---11---11-11-13----|
|--12----12-12---12----12-12---|-12---12-12---12---12-12-14----|
|------------------------------|-------------------------------|
|------------------------------|-------------------------------|
|------------------------------|-------------------------------|
|
|   E  E     e e  E  E     E E    E E     e e  e S  S  E     E
|------------------------------|-------------------------------|
|------------------------------|-------------------------------|
|------------7-7--7\-x---------|----x-----7-7--7----9--------x-|
|-----10-----8-7--8\-x---------|----x-----8-7--8---10--------x-|
|------------------------------|-------------------------------|
|-/12----------------------8-6-|--8----------------------------|
|
|   H             Q        E E    E E     Q    H
|------------------------------|-------------------------------|
|------------------------------|-------------------------------|
|------------------------------|-------------------------------|
|------------------------------|-------------------------------|
|------------------------------|-------------------------------|
|--------------------------8-6-|--8----------------------------|


    e  S  S  e E  e  S  S  e E    e S  S  e E  e S  S  S  E.
|---8-----8--8----8-----8--8---|--8----8--8----8----8--8-13\-----||
|--11----11-11---11----11-11---|-11---11-11---11---11-11-13\-----||
|--12----12-12---12----12-12---|-12---12-12---12---12-12-14\-----||
|------------------------------|---------------------------------||
|------------------------------|---------------------------------||
|------------------------------|---------------------------------||
|
|   E  E     e e  E  E     E E    E E     e e  e S  S  E     E
|------------------------------|---------------------------------||
|------------------------------|---------------------------------||
|------------7-7--7\-x---------|----x-----7-7--7----9--------x---||
|-----10-----8-7--8\-x---------|----x-----8-7--8---10--------x---||
|------------------------------|---------------------------------||
|-/12----------------------8-6-|--8------------------------------||
|
|   H             Q        E E    E E     Q    H
|------------------------------|---------------------------------||
|------------------------------|---------------------------------||
|------------------------------|---------------------------------||
|------------------------------|---------------------------------||
|------------------------------|---------------------------------||
|--------------------------8-6-|--8------------------------------||


   Interlude
    N.C.
    Gtr IV (El. Gtr.)
       |-3--|            |-3--|              |-3--|
    E  S S  S S  E  S E  S S  S S  E  S   E  S S  S S  E  S E  S S S  E  S  5x
||--------------------------------------|-----------------------------------||
||o-------------------------------------|------------------------8---------o||
||--8-----------------8-----------------|-8-----------------8-10---8--------||
||----10p8----8-10-10---10p8----8-10-10-|---10p8----8-10-10----------10-10--||
||o--------10----------------10---------|--------10------------------------o||
||--------------------------------------|-----------------------------------||


  Gtr I
  H                 Q         E.     S
|-----------------------------------19-|
|--------------------------------------|
|--------------------------------------|
|--------------------------------------|
|--------------------------------------|
|--------------------------------------|
|
| Gtr IV
|    |-3--|            |-3--|
| E  S S  S S  E  S E  S S  S S   E  S
|--------------------------------------|
|--------------------------------------|
|-8-----------------8------------------|
|---10p8----8-10-10---10p8----8--10-10-|
|--------10----------------10----------|
|--------------------------------------|


   +E   E       E    E     S S  S  S E      S S
|-(19)-17------15---------15------15-------17----||
|-------------------------18------18-------16----||
|------------------------------------------------||
|------------------------------------------------||
|------------------------------------------------||
|------------------------------------------------||
|
|       |-3--|
|   E   S S  S  S  E    S  E    S  S S  E.
|------------------------------------------------||
|----------------------------------8-------------||
|---8----------------------8---10----8-----------||
|------10p8-----8-10---10--------------10--------||
|-----------10-----------------------------------||
|------------------------------------------------||


 Bridge
  C9
  Gtr II
  E  E e e E  E E E   E E e e e    S  S S S E
|-------------------|----------------------------|
|-------------------|----------------------------|
|-8--7-7-7-7\-x-----|---x-7-7-7----x--9---x-x----|
|-8--7-8-7-8\-x-----|---x-8-7-8----x-10---x-x----|
|-------------------|----------------------------|
|---------------8-6-|-8--------------------------|
|
| Gtr III
| Q    Q   Q    E E   E E E E S  S S  S S S S  S
|-------------------|----------------------------|
|-------------------|----------------------------|
|-8\----------------|----------------------------|
|-------------------|-----8-7-8-10----8---7------|
|-------------------|-------------------------10-|
|---------------8-6-|-8--------------------------|


  E E e e E  E E E   E E e e e    S  S S S E
|------------------|---------------------------|
|------------------|---------------------------|
|-8-7-7-7-7\-x-----|---x-7-7-7----x--9---x-x---|
|-8-7-8-7-8\-x-----|---x-8-7-8----x-10---x-x---|
|------------------|---------------------------|
|--------------8-6-|-8-------------------------|
|
| Q   E E E  E Q     Q   e e S  S S  S S S E
|------------------|---------------------------|
|------------------|---------------------------|
|------------------|---------------------------|
|------------------|-----8-7-8-10----8---7-----|
|------------------|---------------------------|
|-----8-6-8--------|---------------------------|


  E E e e E  E E E   E E e e e    S  S S S E
|------------------|-------------------------|
|------------------|-------------------------|
|-8-7-7-7-7\-x-----|---x-7-7-7----x--9---x-x-|
|-8-7-8-7-8\-x-----|---x-8-7-8----x-10---x-x-|
|------------------|-------------------------|
|--------------8-6-|-8-----------------------|
|
| e E E E e  E Q     Q   e e S  S S  S S S E
|------------------|-------------------------|
|------------------|-------------------------|
|------------------|-------------------------|
|-8-----7-8--------|-----8-7-8-10----8---7---|
|------------------|-------------------------|
|------------------|-------------------------|


   E E e e E  E E E   E E e e e    S  S S S E
|-------------------|-------------------------|
|-------------------|-------------------------|
|--8-7-7-7-7\-x-----|---x-7-7-7----x--9---x-x-|
|--8-7-8-7-8\-x-----|---x-8-7-8----x-10---x-x-|
|-------------------|-------------------------|
|---------------8-6-|-8-----------------------|
|
|  e e e E e  E Q     Q   e e S  S S  S S S E
|-------------------|-------------------------|
|-------------------|-------------------------|
|-------------------|-------------------------|
|------7---8--------|-----8-7-8-10----8---7---|
|-10----------------|-------------------------|
|-------------------|-------------------------|


   E   E   e e   E  E E E   E E e e e    S  S S S E
|-------------------------|-------------------------||
|-------------------------|-------------------------||
|--8---7---7-7---7\-x-----|---x-7-7-7----x--9---x-x-||
|--8---7---8-7---8\-x-----|---x-8-7-8----x-10---x-x-||
|-------------------------|-------------------------||
|---------------------8-6-|-8-----------------------||
|
|  S S S S E S S H          Q   e e S  S S  S S S E
|-------------------------|-------------------------||
|-------------------------|-------------------------||
|-------------------------|-------------------------||
|--------7---8------------|-----8-7-8-10----8---7---||
|-10----------------------|-------------------------||
|-------------------------|-------------------------||


  Db9
    E  E e e E  E E E   E E e e e    S  S E   E
|---------------------|--------------------------||
|---------------------|--------------------------||
|--------8-8-8\-x-----|---x-8-8-8------10-----x--||
|-----11-9-8-9\-x-----|---x-9-8-9------11-----x--||
|---------------------|--------------------------||
|-/13-------------9-7-|-9------------------------||
|
|   W                   Q   e e S  S S  S S S E
|---------------------|--------------------------||
|---------------------|--------------------------||
|---------------------|--------------------------||
|---------------------|-----9-8-9-11----9---8----||
|---------------------|--------------------------||
|---------------------|--------------------------||


 2nd Verse
  Db9
  Gtr I
    e    S  S  e E    e  S  S  S  E.
|---9-------9--9------9-----9--9-11----|
|--12------12-12-----12----12-12-14----|
|--13------13-13-----13----13-13-15----|
|--------------------------------------|
|--------------------------------------|
|--------------------------------------|
|
| Gtr II
|   E    E     e e    E  E     E     E
|--------------------------------------|
|--------------------------------------|
|--------------8-8----8\-x-------------|
|-------11-----9-8----9\-x-------------|
|--------------------------------------|
|-/13--------------------------9-----7-|
|
| Gtr III
|   S S  S  S  E S S  H
|--------------------------------------|
|--------------------------------------|
|--------------------------------------|
|-----------8----9---------------------|
|--11----------------------------------|
|--------------------------------------|


   e S  S  e E Q         e    e     Q         e e    Q    e  e
|--9----9--9--------------------|--------------------------------|
|-12---12-12-------------9---11-|--12--------11-9---11----9------|
|-13---13-13--------------------|---------------------------11---|
|-------------------------------|--------------------------------|
|-------------------------------|--------------------------------|
|-------------------------------|--------------------------------|
|
|  E E     e e e    S  S E    E     E    E    e e    E  E E  E
|-------------------------------|--------------------------------|
|-------------------------------|--------------------------------|
|----x-----8-8-8------10------x-|-------------8-8----8\-x--------|
|----x-----9-8-9------11------x-|-------11----9-8----9\-x--------|
|-------------------------------|--------------------------------|
|--9----------------------------|-/13---------------------9--7---|
|
|  Q       e e S  S S  S S S  E     S S  S S  E S S  H
|-------------------------------|--------------------------------|
|-------------------------------|--------------------------------|
|-------------------------------|--------------------------------|
|----------9-8-9-11----9---8----|----------8----9----------------|
|-------------------------------|--11----------------------------|
|-------------------------------|--------------------------------|


  S  S E Q   Q          S  S S S
|------------------------------9-|
|-9-11-----------------------9---|
|-------------------------10-----|
|----------------------11--------|
|--------------------------------|
|--------------------------------|
|
| E    E e e e    S  S  E    E
|--------------------------------|
|--------------------------------|
|------x-8-8-8------10-------x---|
|------x-9-8-9------11-------x---|
|--------------------------------|
|-9------------------------------|
|
| Q      e e S  S S  S  S  S E
|--------------------------------|
|--------------------------------|
|--------------------------------|
|--------9-8-9-11----9-----8-----|
|--------------------------------|
|--------------------------------|


    S S  S S Q     H           S S E Q   Q         e    e
|---------------------------|----9--------------------------|
|-----9-12------------------|-12-------------------9---11---|
|---------------------------|-------------------------------|
|---------------------------|-------------------------------|
|---------------------------|-------------------------------|
|---------------------------|-------------------------------|
|
|   E    E   e e   E  E E E    E   E e e e    S  S E    E
|---------------------------|-------------------------------|
|---------------------------|-------------------------------|
|------------8-8---8\-x-----|------x-8-8-8------10------x---|
|-------11---9-8---9\-x-----|------x-9-8-9------11------x---|
|---------------------------|-------------------------------|
|-/13-------------------9-7-|--9----------------------------|
|
|   S S  S S E S S H           Q     e e S  S S  S S S  E
|---------------------------|-------------------------------|
|---------------------------|-------------------------------|
|---------------------------|-------------------------------|
|----------8---9------------|--------9-8-9-11----9---8------|
|--11-----------------------|-------------------------------|
|---------------------------|-------------------------------|


    Q         e e    Q    e  e
|------------------------------|
|--12--------11-9---11----9----|
|---------------------------11-|
|------------------------------|
|------------------------------|
|------------------------------|
|
|   E    E    e e    E  E E  E
|------------------------------|
|------------------------------|
|-------------8-8----8\-x------|
|-------11----9-8----9\-x------|
|------------------------------|
|-/13---------------------9--7-|
|
|   S S  S S  E S S  H
|------------------------------|
|------------------------------|
|------------------------------|
|----------8----9--------------|
|--11--------------------------|
|------------------------------|


  S  S E Q   Q          S  S S S     S S  S S Q     H
|------------------------------9-|---------------------------|
|-9-11-----------------------9---|-----9-12------------------|
|-------------------------10-----|---------------------------|
|----------------------11--------|---------------------------|
|--------------------------------|---------------------------|
|--------------------------------|---------------------------|
|
| E    E e e e    S  S  E    E       E    E   e e   E  E E E
|--------------------------------|---------------------------|
|--------------------------------|---------------------------|
|------x-8-8-8------10-------x---|------------8-8---8\-x-----|
|------x-9-8-9------11-------x---|-------11---9-8---9\-x-----|
|--------------------------------|---------------------------|
|-9------------------------------|-/13-------------------9-7-|
|
| Q      e e S  S S  S  S  S E       S S  S S E S S H
|--------------------------------|---------------------------|
|--------------------------------|---------------------------|
|--------------------------------|---------------------------|
|--------9-8-9-11----9-----8-----|----------8---9------------|
|--------------------------------|--11-----------------------|
|--------------------------------|---------------------------|


   S S E Q   Q          e    e     Q         e  e    Q     e  e
|----9-----------------12---14-|--16--------14-12---14----12--9-|
|-12-------------------12---14-|--17--------14-12---14----12-11-|
|----------------------13---15-|--16--------15-13---15----13-11-|
|------------------------------|--------------------------------|
|------------------------------|--------------------------------|
|------------------------------|--------------------------------|
|
|  E   E e e e    S  S  E    E     E    E    e  e    E  E  E  E
|------------------------------|--------------------------------|
|------------------------------|--------------------------------|
|------x-8-8-8------10-------x-|-------------8--8----8\-x-------|
|------x-9-8-9------11-------x-|-------11----9--8----9\-x-------|
|------------------------------|--------------------------------|
|--9---------------------------|-/13-----------------------9--7-|
|
|  Q     e e S  S S  S  S S  E     S S  S S  E  S S  H
|------------------------------|--------------------------------|
|------------------------------|--------------------------------|
|------------------------------|--------------------------------|
|--------9-8-9-11----9----8----|----------8-----9---------------|
|------------------------------|--11----------------------------|
|------------------------------|--------------------------------|


   S  S E Q   Q         E   S S
|-12-14-----------------------9---|
|-12-14---------------------9-----|
|-13-15---------------------------|
|---------------------------------|
|---------------------------------|
|---------------------------------|
|
|  E    E e e e    S  S E   E
|---------------------------------|
|---------------------------------|
|-------x-8-8-8------10-----x-----|
|-------x-9-8-9------11-----x-----|
|---------------------------------|
|--9------------------------------|
|
|  Q      e e S  S S  S S S E
|---------------------------------|
|---------------------------------|
|---------------------------------|
|---------9-8-9-11----9---8-------|
|---------------------------------|
|---------------------------------|


    S S  S S Q     H           S  S E Q   Q          e    e
|---------------------------|-14-16-----------------12---14-|
|-----9-12------------------|-12-14-----------------12---14-|
|---------------------------|-----------------------13---15-|
|---------------------------|-------------------------------|
|---------------------------|-------------------------------|
|---------------------------|-------------------------------|
|
|   E    E   e e   E  E E E    E    E e e e    S  S  E    E
|---------------------------|-------------------------------|
|---------------------------|-------------------------------|
|------------8-8---8\-x-----|-------x-8-8-8------10-------x-|
|-------11---9-8---9\-x-----|-------x-9-8-9------11-------x-|
|---------------------------|-------------------------------|
|-/13-------------------9-7-|--9----------------------------|
|
|   S S  S S E S S H           Q      e e S  S S  S  S S  E
|---------------------------|-------------------------------|
|---------------------------|-------------------------------|
|---------------------------|-------------------------------|
|----------8---9------------|---------9-8-9-11----9----8----|
|--11-----------------------|-------------------------------|
|---------------------------|-------------------------------|


    Q         e  e    Q     e  e
|--16--------14-12---14----12--9--|
|--17--------14-12---14----12-11--|
|--16--------15-13---15----13-11--|
|---------------------------------|
|---------------------------------|
|---------------------------------|
|
|   E    E    e  e    E  E  E  E
|---------------------------------|
|---------------------------------|
|-------------8--8----8\-x--------|
|-------11----9--8----9\-x--------|
|---------------------------------|
|-/13-----------------------9--7--|
|
|   S S  S S  E  S S  H
|---------------------------------|
|---------------------------------|
|---------------------------------|
|----------8-----9----------------|
|--11-----------------------------|
|---------------------------------|


                      Outro
                       Db9
   S  S E Q  H         W              W                6x
|-12-14------------||---------------|------------------||
|-12-14------------||o--------------|-----------------o||
|-13-15------------||---------------|------------------||
|------------------||---------------|------------------||
|------------------||o--------------|-----------------o||
|------------------||---------------|------------------||
|
|  E    E Q  Q  Q      Q  Q  Q  E E   E E Q  S S E Q   6x
|------------------||---------------|------------------||
|------------------||o--------------|-----------------o||
|------------------||---------------|------------------||
|---------x-----x--||-----x---------|-----x----x-x-x---||
|---------x-----x--||o----x---------|-----x----x-x-x--o||
|--9------x-----x--||-----x-----9-7-|-9---x----x-x-x---||
|
|  E    E Q  H         H     Q  E E   E E Q  H         6x
|------------------||---------------|------------------||
|------------------||o--------------|-----------------o||
|------------------||---------------|------------------||
|------------------||---------------|------------------||
|------------------||o--------------|-----------------o||
|--9---------------||-----------9-7-|-9----------------||


                                              ~
     S  S E  S  S E S S E Q     E  S S S  S E Q      e E
||----------------------------|---12-----11---9-----------||
||o-----------------9-9-------|---------------------11---o||
||----------10-10-------------|---------------------------||
||--11-11---------------------|---------------------------||
||o---------------------------|--------------------------o||
||----------------------------|---------------------------||
|
|    Q       Q      Q     E E   E  E   Q      S S E  Q
||----------------------------|---------------------------||
||o---------------------------|--------------------------o||
||----------------------------|---------------------------||
||-----------x----------------|--------x--------x-x--x----||
||o----------x----------------|--------x--------x-x--x---o||
||-----------x------------9-7-|-9------x--------x-x--x----||
|
|    H              Q     E E   E  E   Q      H
||----------------------------|---------------------------||
||o---------------------------|--------------------------o||
||----------------------------|---------------------------||
||----------------------------|---------------------------||
||o---------------------------|--------------------------o||
||------------------------9-7-|-9-------------------------||


       S  S E  S  S E S S E Q
|-||----------------------------|
|-||o-----------------9-9-------|
|-||----------10-10-------------|
|-||--11-11---------------------|
|-||o---------------------------|
|-||----------------------------|
|
|      Q       Q      Q     E E
|-||----------------------------|
|-||o---------------------------|
|-||----------------------------|
|-||-----------x----------------|
|-||o----------x----------------|
|-||-----------x------------9-7-|
|
|      H              Q     E E
|-||----------------------------|
|-||o---------------------------|
|-||----------------------------|
|-||----------------------------|
|-||o---------------------------|
|-||------------------------9-7-|


                ~
  E  S S S  S E Q      e E    S  S E  S  S E S S E Q
|---12-----11---9----------|---------------------------|
|---------------------11---|-----------------9-9-------|
|--------------------------|---------10-10-------------|
|--------------------------|-11-11---------------------|
|--------------------------|---------------------------|
|--------------------------|---------------------------|
|
| E  E   Q      S S E  Q      Q       Q      Q     E E
|--------------------------|---------------------------|
|--------------------------|---------------------------|
|--------------------------|---------------------------|
|--------x--------x-x--x---|----------x----------------|
|--------x--------x-x--x---|----------x----------------|
|-9------x--------x-x--x---|----------x------------9-7-|
|
| E  E   Q      H             H              Q     E E
|--------------------------|---------------------------|
|--------------------------|---------------------------|
|--------------------------|---------------------------|
|--------------------------|---------------------------|
|--------------------------|---------------------------|
|-9------------------------|-----------------------9-7-|


                ~
  E  S S S  S E Q      e E  4x
|---12-----11---9-----------||
|---------------------11---o||
|---------------------------||
|---------------------------||
|--------------------------o||
|---------------------------||
|
| E  E   Q      S S E  Q    4x
|---------------------------||
|--------------------------o||
|---------------------------||
|--------x--------x-x--x----||
|--------x--------x-x--x---o||
|-9------x--------x-x--x----||
|
| E  E   Q      H           4x
|---------------------------||
|--------------------------o||
|---------------------------||
|---------------------------||
|--------------------------o||
|-9-------------------------||


Duration Legend
---------------
W - whole; H - half; Q - quarter; E - 8th; S - 16th; T - 32nd; X - 64th; a - acciaccatura
+ - note tied to previous; . - note dotted; .. - note double dotted
Uncapitalized letters represent notes that are staccato (1/2 duration)
Irregular groupings are notated above the duration line
Duration letters will always appear directly above the note/fret number it represents the
duration for.  Duration letters with no fret number below them represent rests.  Multi-
bar rests are notated in the form Wxn, where n is the number of bars to rest for.  Low
melody durations appear below the staff

Tablature Legend
----------------
 h   - hammer-on
 p   - pull-off
 b   - bend
 pb  - pre-bend
 r   - bend release (if no number after the r, then release immediately)
 /\  - slide into or out of (from/to "nowhere")
 s   - legato slide
 S   - shift slide
  - natural harmonic
[n]  - artificial harmonic
n(n) - tapped harmonic
 ~   - vibrato
 tr  - trill
 T   - tap
 TP  - trem. picking
 PM  - palm muting
\n/  - tremolo bar dip; n = amount to dip
 \n  - tremolo bar down
 n/  - tremolo bar up
/n\  - tremolo bar inverted dip
 =   - hold bend; also acts as connecting device for hammers/pulls
 <>  - volume swell (louder/softer)
 x   - on rhythm slash represents muted slash
 o   - on rhythm slash represents single note slash

Misc Legend
-----------
 |  - bar
||  - double bar
||o - repeat start
o|| - repeat end
*|  - double bar (ending)
 :  - bar (freetime)
 $  - Segno
 &  - Coda
Tempo markers -  = BPM(8/16=s8/s16), where s8 = swing 8ths, s16 = swing 16ths

Добавлено: 30.10.2015
Другие материалы по этой песне:

Страница создана 18.01.2014
http://primanota.ru/ohio-players/fire-chords.htm
Привет, Гость.
Предлагаем пройти революционный курс по гитаре.
Подарок от PrimaNota.Ru, забирай!