PrimaNota.ru - самый крупный в мире бесплатный архив песенных текстов, аккордов, табулатур и нот


Oh Sleeper - Vices Like Vipers - текст песни, таба, видео

Регистрация Запомнить меня
Войти через:  Facebook Google Twitter Vk Yandex Mail.ru

Oh Sleeper - Vices Like Vipers - текст песни, таба, видео

Печатать
Просмотров: 245
This is the sweep picking part in the verse and near end of the song.

d------1-5-10-5-1-----------------|
a-----3----------3----------------|
f----2------------2---------------|
c---3--------------3--------------|
g--5----------------4-------------|
c---------------------------------|

Play this

d--------4-9-4--------------------|
a-----1-5-----5-1-----------------|
f----0-----------0----------------|
c---2-------------2---------------|
g--4---------------4--------------|
c---------------------------------|

this is the second half of the verse solo


d-----------13-19-22-19-13---------|
a---------15--------------15-------|
f-------13------------------13-----|
c--12-15---------------------12-15-|
g----------------------------------|
c----------------------------------|

d-----------12-15-21-15-12----------|
a---------14--------------14--------|
f-------13------------------13------|
c--11-14----------------------14-11-|
g-----------------------------------|
c-----------------------------------|


Thiis just laid out really badly but this the whole thing and it's a hundred percent 
I got the info form the guitar of Oh, Sleeper so yeah this is it.
Добавлено: 21.02.2012
Другие материалы по этой песне:

Страница создана 21.02.2012
http://primanota.ru/oh-sleeper/vices-like-vipers-chords.htm
Привет, Гость.
Предлагаем пройти революционный курс по гитаре.
Подарок от PrimaNota.Ru, забирай!