PrimaNota.ru - самый крупный в мире бесплатный архив песенных текстов, аккордов, табулатур и нот


Oh Sleeper - In The Wake Of Pigs - текст песни, таба, видео

Регистрация Запомнить меня
Войти через:  Facebook Google Twitter Vk Yandex Mail.ru

Oh Sleeper - In The Wake Of Pigs - текст песни, таба, видео

Печатать
Просмотров: 172
Уроки эстрадного вокала в Санкт-Петербурге
In the Wake of Pigs
Oh, Sleeper

This is my first tab I made for Ultimate Guitar and it's by the best band ever.
I know it isn't 100% accurate but it's pretty close.
If you find a mistake please comment about it and I will fix it.

Drop C tuning
Key of C
155.0 BPM in 8/8 time



Tab Key:
p = pull off
h = hammer on
~ = hold note
b = bend



d |--------------------|---------------------|
A |--------------------|---------------------|
F |--------------------|---------------------|
C |-0-0-12-0-10-0-12-0-|-15-0-12-0-10-0-12-0-|
G |--------------------|---------------------|
C |--------------------|---------------------|

d |--------------------|----------------------|
A |--------------------|----------------------|
F |--------------------|----------------------|
C |-0-0-12-0-10-0-12-0-|-15-0-12-0-17-0-13p12-|
G |--------------------|----------------------|
C |--------------------|----------------------|

d |--------------------|---------------------|
A |--------------------|---------------------|
F |-0-0-12-0-10-0-12-0-|-15-0-12-0-10-0-12-0-|
C |--------------------|---------------------|
G |--------------------|---------------------|
C |--------------------|---------------------|

d |--------------------|----------------------|
A |--------------------|----------------------|
F |-0-0-12-0-10-0-12-0-|-15-0-12-0-17-0-------|
C |--------------------|----------------13p12-|
G |--------------------|----------------------|
C |--------------------|----------------------|

Repeat those 8 measures one more time.

d |-------------------------|---------------------------|
A |-------13----15----13----|--------13----15-----13----|
F |-------------------------|---------------------------|
C |-12-15----15----15----15-|-12--15----15-----15----15-|
G |-------------------------|---------------------------|
C |-------------------------|---------------------------|

d |-------------------------|---------------------------|
A |-------13----15----13----|--------13----15-----13----|
F |-------------------------|---------------------------|
C |-12-15----15----15----15-|-12--15----15-----15----15-|
G |-------------------------|---------------------------|
C |-------------------------|---------------------------|

d |-------13----15----13----|--------13----15-----13----|
A |-------------------------|---------------------------|
F |-12-15----15----15----15-|-12--15----15-----15----15-|
C |-------------------------|---------------------------|
G |-------------------------|---------------------------|
C |-------------------------|---------------------------|

d |-------13----15----13----|--------13----15-----13----|
A |-------------------------|---------------------------|
F |-12-15----15----15----15-|-12--15----15-----15----15-|
C |-------------------------|---------------------------|
G |-------------------------|---------------------------|
C |-------------------------|---------------------------|

Repeat those 8 measures one more time except for the last measure do this (it's played fast):
d |-------------------------|---------------------------|
A |-------------------------|----------13-15-16-15-13---|
F |-14-14-12-10----------10-|-12-14-15------------------|
C |-------------13-12-13----|---------------------------|
G |-------------------------|---------------------------|
C |-------------------------|---------------------------|

Then (The 12h14h15p12's are very fast):
d |-----------------|-------------------15----13----|
A |-----------------|-------------------------------|
F |-15-15-15--15-15-|-------12h14h15p12----15----15-|
C |-----------------|-------------------------------|
G |-----------------|-------------------------------|
C |-----------------|-------------------------------|

d |-----------------|-------------15----13----|
A |-----------------|-------------------------|
F |-14-14-14--14-14-|-------12-14----14----14-|
C |-----------------|-------------------------|
G |-----------------|-------------------------|
C |-----------------|-------------------------|

d |-----------------|-------------------15----13----|
A |-----------------|-------------------------------|
F |-12-12-12--12-12-|-------12h14h15p12----12----13-|
C |-----------------|-------------------------------|
G |-----------------|-------------------------------|
C |-----------------|-------------------------------|

d |-----------------|
A |-----------------|
F |-----------------|
C |-15-15-15--15-15~|
G |-----------------|
C |-----------------|

(Fast):
d |-------------------------|---------------------------|
A |-------------------------|----------13-15-16-15-13---|
F |-14-14-12-10----------10-|-12-14-15------------------|
C |-------------13-12-13----|---------------------------|
G |-------------------------|---------------------------|
C |-------------------------|---------------------------|

This again:
d |-----------------|-------------------15----13----|
A |-----------------|-------------------------------|
F |-15-15-15--15-15-|-------12h14h15p12----15----15-|
C |-----------------|-------------------------------|
G |-----------------|-------------------------------|
C |-----------------|-------------------------------|

d |-----------------|-------------15----13----|
A |-----------------|-------------------------|
F |-14-14-14--14-14-|-------12-14----14----14-|
C |-----------------|-------------------------|
G |-----------------|-------------------------|
C |-----------------|-------------------------|

d |-----------------|-------------------15----13----|
A |-----------------|-------------------------------|
F |-12-12-12--12-12-|-------12h14h15p12----12----13-|
C |-----------------|-------------------------------|
G |-----------------|-------------------------------|
C |-----------------|-------------------------------|

d |-----------------|
A |-----------------|
F |-----------------|
C |-15-15-15--15-15~|
G |-----------------|
C |-----------------|

(Fast):
d |-------------------------|---------------------------|
A |-------------------------|----------13-15-16-15-13---|
F |-14-14-12-10----------10-|-12-14-15------------------|
C |-------------13-12-13----|---------------------------|
G |-------------------------|---------------------------|
C |-------------------------|---------------------------|

Bend the 10's the last few times you hit them.
d |----------------------------------|
A |----------------------------------|
F |-------------------------10b(16x)-|
C |-10(16x)-12(16x)-13(16x)----------|
G |----------------------------------|
C |----------------------------------|



d |--------------------|---------------------|
A |--------------------|---------------------|
F |--------------------|---------------------|
C |-0-0-12-0-10-0-12-0-|-15-0-12-0-10-0-12-0-|
G |--------------------|---------------------|
C |--------------------|---------------------|

d |--------------------|----------------------|
A |--------------------|----------------------|
F |--------------------|----------------------|
C |-0-0-12-0-10-0-12-0-|-15-0-12-0-17-0-13p12-|
G |--------------------|----------------------|
C |--------------------|----------------------|

d |--------------------|---------------------|
A |--------------------|---------------------|
F |-0-0-12-0-10-0-12-0-|-15-0-12-0-10-0-12-0-|
C |--------------------|---------------------|
G |--------------------|---------------------|
C |--------------------|---------------------|

d |--------------------|----------------------|
A |--------------------|----------------------|
F |-0-0-12-0-10-0-12-0-|-15-0-12-0-17-0-------|
C |--------------------|----------------13p12-|
G |--------------------|----------------------|
C |--------------------|----------------------|

Do not repeat
Play this next:
d |-------------------------|---------------------------|
A |-------13----15----13----|--------13----15-----13----|
F |-------------------------|---------------------------|
C |-12-15----15----15----15-|-12--15----15-----15----15-|
G |-------------------------|---------------------------|
C |-------------------------|---------------------------|

d |-------------------------|---------------------------|
A |-------13----15----13----|--------13----15-----13----|
F |-------------------------|---------------------------|
C |-12-15----15----15----15-|-12--15----15-----15----15-|
G |-------------------------|---------------------------|
C |-------------------------|---------------------------|

d |-------13----15----13----|--------13----15-----13----|
A |-------------------------|---------------------------|
F |-12-15----15----15----15-|-12--15----15-----15----15-|
C |-------------------------|---------------------------|
G |-------------------------|---------------------------|
C |-------------------------|---------------------------|

d |-------13----15----13----|--------13----15-----13----|
A |-------------------------|---------------------------|
F |-12-15----15----15----15-|-12--15----15-----15----15-|
C |-------------------------|---------------------------|
G |-------------------------|---------------------------|
C |-------------------------|---------------------------|

Do not repeat
Play fast:
d |-------------------------|---------------------------|
A |-------------------------|----------13-15-16-15-13---|
F |-14-14-12-10----------10-|-12-14-15------------------|
C |-------------13-12-13----|---------------------------|
G |-------------------------|---------------------------|
C |-------------------------|---------------------------|

This part I couldn't figure out that well.
d |-------------------------|-------------------------|
A |-16-16-16-13-15-13-16-16-|-16-16-16-13-15-13-16-16-|
F |-------------------------|-------------------------|
C |-------------------------|-------------------------|
G |-------------------------|-------------------------|
C |-------------------------|-------------------------|

d |-------------------------|-------------------------|
A |-16-16-16-13-15-13-16-16-|-16-16-16-13-15-13-16-13-|
F |-------------------------|-------------------------|
C |-------------------------|-------------------------|
G |-------------------------|-------------------------|
C |-------------------------|-------------------------|

d |-------------------------|-------------------------|
A |-------------------------|-------------------------|
F |-15-15-15-12-14-12-15-15-|-15-15-15-12-14-12-15-15-|
C |-------------------------|-------------------------|
G |-------------------------|-------------------------|
C |-------------------------|-------------------------|

d |-------------------------|-------------------------|
A |-------------------------|-------------------------|
F |-15-15-15-12-14-12-15-15-|-15-15-15-12-14-12-15-12-|
C |-------------------------|-------------------------|
G |-------------------------|-------------------------|
C |-------------------------|-------------------------|

Repeat those 8 measures except do this for the last measure:
d |-------------------------|
A |-------------------------|
F |-10-10-14-10-12-10-14-10-|
C |-------------------------|
G |-------------------------|
C |-------------------------|

Then this fast:
d |-------------------------|---------------------------|
A |-------------------------|----------13-15-16-15-13---|
F |-14-14-12-10----------10-|-12-14-15------------------|
C |-------------13-12-13----|---------------------------|
G |-------------------------|---------------------------|
C |-------------------------|---------------------------|


Chorus:
d |-----------------|-------------------15----13----|
A |-----------------|-------------------------------|
F |-15-15-15--15-15-|-------12h14h15p12----15----15-|
C |-----------------|-------------------------------|
G |-----------------|-------------------------------|
C |-----------------|-------------------------------|

d |-----------------|-------------15----13----|
A |-----------------|-------------------------|
F |-14-14-14--14-14-|-------12-14----14----14-|
C |-----------------|-------------------------|
G |-----------------|-------------------------|
C |-----------------|-------------------------|

d |-----------------|-------------------15----13----|
A |-----------------|-------------------------------|
F |-12-12-12--12-12-|-------12h14h15p12----12----13-|
C |-----------------|-------------------------------|
G |-----------------|-------------------------------|
C |-----------------|-------------------------------|

d |-----------------|
A |-----------------|
F |-----------------|
C |-15-15-15--15-15~|
G |-----------------|
C |-----------------|

(Fast):
d |-------------------------|---------------------------|
A |-------------------------|----------13-15-16-15-13---|
F |-14-14-12-10----------10-|-12-14-15------------------|
C |-------------13-12-13----|---------------------------|
G |-------------------------|---------------------------|
C |-------------------------|---------------------------|

Repeat chorus one more time
Then play this while bending the 10's the last few times you hit them.

d |----------------------------------|
A |----------------------------------|
F |-------------------------10b(16x)-|
C |-10(16x)-12(16x)-13(16x)----------|
G |----------------------------------|
C |----------------------------------|

Then the last part is the same but everything is a whole step up
Bend the 12's the last few times you hit them.

d |----------------------------------|-----|
A |----------------------------------|-----|
F |-----------------10(16x)-12b(16x)-|-----|
C |-12(16x)-13(16x)------------------|-0-0-|
G |----------------------------------|-----|
C |----------------------------------|-----|

END.






The really fast part i think is really played like this with hammer ons and pull offs 
instead of picking every note, but I'm not that fast yet.
d |-------------------------|---------------------------|
A |-------------------------|----------13h15h16p15p13---|
F |-14-14p12p10-------------|-12h14h15------------------|
C |-------------13p12h13h15-|---------------------------|
G |-------------------------|---------------------------|
C |-------------------------|---------------------------|
Добавлено: 09.02.2014
Другие материалы по этой песне:
  • Аккорды и текст

Страница создана 09.02.2014
http://primanota.ru/oh-sleeper/in-the-wake-of-pigs-chords.htm
Привет, Гость.
Предлагаем пройти революционный курс по гитаре.
Подарок от PrimaNota.Ru, забирай!