PrimaNota.ru - самый крупный в мире бесплатный архив песенных текстов, аккордов, табулатур и нот


Oh Sleeper - I Will Welcome The Reaping - текст песни, таба, видео

Регистрация Запомнить меня
Войти через:  Facebook Google Twitter Vk Yandex Mail.ru

Oh Sleeper - I Will Welcome The Reaping - текст песни, таба, видео

Печатать
Просмотров: 142
Ok, this is just a rough draft just to get things going because i cant seem to figure 
some parts of this song.

This is the Beginning riff

Tune: Drop C

/=slide
p=pulloff
h=hammeron


D|-----------------|
A|-----------------|
F|--7-/--15-15-----|x2
C|--x-/--x--x------|
G|--5-/--12-12-----|
C|-----------------|

This is the faded out part at the beginning

Guitar 1

D|--------------------------------------|
A|--------------------------------------|
F|--7-/--15-15---7-/--15-15-------------|
C|--x-/--x--x----x-/--x--x--------------|x4
G|--5-/--12-12---5-/--12-12---13--------|
C|-------------------------------12p0---|


Guitar 2

D|--------------------------------------|
A|--------------------------------------|
F|--7-/--15-15---7-/--15-15---15\7------|
C|--x-/--x--x----x-/--x--x--------------|x4
G|--5-/--12-12---5-/--12-12--------5----|
C|--------------------------------------|


Play this after the fourth little transition

D|------------------------------------|
A|------------------------------------|
F|------------------------------------|
C|--7-7-7-7--5-5-5-5------------------|
G|--x-x-x-x--x-x-x-x---5-5-----3------|
C|--8-8-8-8--7-7-7-7-------3-5--------|


Guitar 1

D|--------------------------------------|
A|--------------------------------------|
F|--7-/--15-15---7-/--15-15-------------|
C|--x-/--x--x----x-/--x--x--------------|x4
G|--5-/--12-12---5-/--12-12---13--------|
C|-------------------------------12p0---|


Guitar 2

D|--------------------------------------|
A|--------------------------------------|
F|--7-/--15-15---7-/--15-15---15\7------|
C|--x-/--x--x----x-/--x--x--------------|x4
G|--5-/--12-12---5-/--12-12--------5----|
C|--------------------------------------|

D|----------------------------------------------------------|
A|----------------------------------------------------------|
F|----------------------------------------------------------|
C|--7-7-7-7--5-5-5-5----------------------------------------|
G|--x-x-x-x--x-x-x-x---5-5-----3-5-------5-5-5-5-5-5-5-5----|
C|--8-8-8-8--7-7-7-7-------3-5-----3-2-0-1-1-1-1-1-1-1-1----| - on this part, the rythym 
kinda hard to tab so just listen to the song and try to figure it out. It is the right chord

Guitar 1

D|--------------------------------------|
A|--------------------------------------|
F|--7-/--15-15---7-/--15-15-------------|
C|--x-/--x--x----x-/--x--x--------------|x4
G|--5-/--12-12---5-/--12-12---13--------|
C|-------------------------------12p0---|


Guitar 2

D|--------------------------------------|
A|--------------------------------------|
F|--7-/--15-15---7-/--15-15---15\7------|
C|--x-/--x--x----x-/--x--x--------------|x4
G|--5-/--12-12---5-/--12-12--------5----|
C|--------------------------------------|
Play these once more


D|----------------------------------------------------------|
A|----------------------------------------------------------|
F|----------------------------------------------------------|
C|--7-7-7-7--5-5-5-5----------------------------------------|
G|--x-x-x-x--x-x-x-x---5-5-----3-5-------5-5-5-5-5-5-5-5----|
C|--8-8-8-8--7-7-7-7-------3-5-----3-2-0-1-1-1-1-1-1-1-1----|

and then....

Guitar 1

D|------------------------------------------------------|
A|------------------------------------------------------|
F|------------------------------------------------------|
C|------------------------------------------------------|x4 i believe
G|-0--6-6--5-5-5---5-----5---5-----5-------5---5--------|
C|-0--3-3--1-1-1-----1-1---1---1-----1-1-1---1---1------|
   .

Guitar 2

D|------------------------------------------------------|
A|------------------------------------------------------|
F|-----------------7-----7---7------7-------7---7-------|
C|------------------------------------------------------|x4 i believe
G|-0--6-6--5-5-5-----6-6---6---6------6-6-6---6---6-----|
C|-0--3-3--1-1-1----------------------------------------|
   .

The Rythym is probably wrong on this part but just listen to the song

Well thats all I have for now....please look and tell me if you have any suggestions, 
or addons!!!
Добавлено: 28.02.2012
Другие материалы по этой песне:
  • Аккорды и текст

Страница создана 28.02.2012
http://primanota.ru/oh-sleeper/i-will-welcome-the-reaping-chords.htm
Привет, Гость.
Предлагаем пройти революционный курс по гитаре.
Подарок от PrimaNota.Ru, забирай!