PrimaNota.ru - самый крупный в мире бесплатный архив песенных текстов, аккордов, табулатур и нот


Oh No Not Stereo - Cant Trust Anyone - таба, видео

Регистрация Запомнить меня
Войти через:  Facebook Google Twitter Vk Yandex Mail.ru

Oh No Not Stereo - Cant Trust Anyone - таба, видео

Печатать
Просмотров: 39
Artist: Oh No Not Stereo
Song: Can't Trust Anyone
Album: 003
Tabbed by: gustavoaraujo999@hotmail.com

[Intro]
e|------------------------------------------------------------------|
B|------------------------------------------------------------------|
G|------------------------------------------------------------------|
D|----7h9-9^10--7-9--------------------------[x4]-------------------|
A|-9----------------7-8-9--9-9-9--7-778-889-------------------------|
E|------------------------------------------------------------------|

[Verse 1]
e|------------------------------------------------------------------|
B|------------------------------------------------------------------|
G|------------------------------------------------------------------|
D|--2-3-4--------------------------------------[x8]-----------------|
A|--2-3-4-----------------------------------------------------------|
E|--0-1-2-----------------------------------------------------------|

[Pre-chorus 1]
e|------------------------------------------------------------------|
B|------------------------------------------------------------------|
G|----------4-4-4-4-------------------------------------------------|
D|-2-2-2-2--4-4-4-4-------------------------------------------------|
A|-2-2-2-2--2-2-2-2-------------------------------------------------|
E|-0-0-0-0----------------------------------------------------------|

[Verse 2]
e|------------------------------------------------------------------|
B|------------------------------------------------------------------|
G|------------------------------------------------------------------|
D|--2-3-4--------------------------------------[x8]-----------------|
A|--2-3-4-----------------------------------------------------------|
E|--0-1-2-----------------------------------------------------------|
 
e|-------------------------------------|------|---------------|
B|-------------------------------------|------|---------------|
G|-------------------------------------|------|---------------|
D|-------------------------9-10-9------|-[x3]-|---------------|
A|-9-12-9--9-12-9-----9-12--------12-9-|------|-9-9-9-7-7-7-7-|
E|-------------------------------------|------|---------------|
 
[Pre-chorus 2]
e|------------------------------------------------------------------|
B|------------------------------------------------------------------|
G|------------------------------------------------------------------|
D|-7-7-7-7--9-9-9-9-------------------------------------------------|
A|-7-7-7-7--9-9-9-9-------------------------------------------------|
E|-5-5-5-5--7-7-7-7-------------------------------------------------|
 
[Chorus]
e|------------------------------------------------------------------|
B|------------------------------------------------------------------|
G|------6666------4444----------------------------------------------|
D|-4444-6666-2222-4444----------------------------------------------|
A|-4444-4444-2222-2222----------------------------------------------|
E|-2222------0000---------------------------------------------------|

[Interlude]
e|------------------------------------------------------------------|
B|------------------------------------------------------------------|
G|------------------------------------------------------------------|
D|----7h9-9^10--7-9--------------------------[x2]-------------------|
A|-9----------------7-8-9--9-9-9--7-778-889-------------------------|
E|------------------------------------------------------------------|

[Verse 3]
e|------------------------------------------------------------------|
B|------------------------------------------------------------------|
G|------------------------------------------------------------------|
D|--2-3-4-----------------------------------------------------------|
A|--2-3-4-----------------------------------------------------------|
E|--0-1-2-----------------------------------------------------------|

[Pre-chorus 2]
e|------------------------------------------------------------------|
B|------------------------------------------------------------------|
G|------------------------------------------------------------------|
D|-7-7-7-7--9-9-9-9-------------------------------------------------|
A|-7-7-7-7--9-9-9-9-------------------------------------------------|
E|-5-5-5-5--7-7-7-7-------------------------------------------------|
 
[Chorus]
e|------------------------------------------------------------------|
B|------------------------------------------------------------------|
G|------6666------4444----------------------------------------------|
D|-4444-6666-2222-4444-----------------------[x2]-------------------|
A|-4444-4444-2222-2222----------------------------------------------|
E|-2222------0000---------------------------------------------------|

[Solo]
e|------------------------------------------------------------------|
B|------------------------------------------------------------------|
G|------6666------4444----------------------------------------------|
D|-4444-6666-2222-4444-----------------------[x2]-------------------|
A|-4444-4444-2222-2222----------------------------------------------|
E|-2222------0000---------------------------------------------------|

e|------------------------------------------------------------------|
B|------------------------------------------------------------------|
G|------------------------------------------------------------------|
D|------------------------------------------------------------------|
A|------------------------------------------------------------------|
E|------------------------------------------------------------------|

[Outro]
e|------------------------------------------------------------------|
B|------------------------------------------------------------------|
G|------------------------------------------------------------------|
D|----7h9-9^10--7-9--------------------------[x2]-------------------|
A|-9----------------7-8-9--9-9-9--7-778-889-------------------------|
E|------------------------------------------------------------------|

Добавлено: 21.06.2016
Другие материалы по этой песне:
  • Аккорды и текст

Страница создана 21.06.2016
http://primanota.ru/oh-no-not-stereo/cant-trust-anyone-chords.htm
Привет, Гость.
Предлагаем пройти революционный курс по гитаре.
Подарок от PrimaNota.Ru, забирай!