PrimaNota.ru - самый крупный в мире бесплатный архив песенных текстов, аккордов, табулатур и нот


Oh Mercy - Someday The Strokes Cover - таба, видео

Регистрация Запомнить меня
Войти через:  Facebook Google Twitter Vk Yandex Mail.ru

Oh Mercy - Someday The Strokes Cover - таба, видео

Печатать
Просмотров: 53
                                Oh Mercy - Someday (Cover) 

Just the intro so far, but i'm sure this is good enough for now 


e|-------------------------------------|
B|---------5----4--------4h5-----------|  X2            
G|-----4------4------4-------4---------|
D|-------6-------------6---------------|
A|-------------------------------------|
E|--0-------------0--------------------|

e|--------------------------------|
B|--------5---4-------4h5---------|
G|----6-----6-----6-------4-------|
D|------7-----------7-------------|
A|--------------------------------|
E|-0------------0-----------------|

e|-------------------------------|
B|---------5--4~-----------------|
G|----4----4--4~-----------------|
D|------6--6--6~-----------------|
A|-------------------------------|
E|-0-----------------------------|

Just repeat however you like! Still not sure how the rest goes.
Добавлено: 05.06.2016
Другие материалы по этой песне:
  • Аккорды и текст

Страница создана 05.06.2016
http://primanota.ru/oh-mercy/someday-strokes-cover-chords.htm
Привет, Гость.
Предлагаем пройти революционный курс по гитаре.
Подарок от PrimaNota.Ru, забирай!