PrimaNota.ru - самый крупный в мире бесплатный архив песенных текстов, аккордов, табулатур и нот


Oh Me My - Armidale - таба, видео

Регистрация Запомнить меня
Войти через:  Facebook Google Twitter Vk Yandex Mail.ru

Oh Me My - Armidale - таба, видео

Печатать
Просмотров: 63
Oh Me My - Armidale
(Tabbed by R.Walsh)

http://www.ohmemy.com

Capo 3

G     320033
C     x32010
D     xx0232
Dm    xx0231
Em    022000
Am    x02210
Bm    x24432

INTRO:

    Am                                   C                                      x2
e|----0-0-0-0---0-0-0-0---0-0-0-0----------0-0-0-0---0-0-0-0---0-0-0-0-----------|
b|----1-1-1-1---1-1-1-1---1-1-1-1----------1-1-1-1---1-1-1-1---1-1-1-1-----------|
G|----2-2-2-2---2-2-2-2---2-2-2-2--2-2-----0-0-0-0---0-0-0-0---0-0-0-0--0-0------|
D|----2-2-2-2---2-2-2-2---2-2-2-2--2-0-0-2-2-2-2-2---2-2-2-2---2-2-2-2--2-0-0-2--|
A|--0---------0---------0----------0-0-2-3---------3---------3----------3-3-2-0--|
E|-------------------------------------------------------------------------------|


Am                C
Pick me up by the side of the road

     G                              Dm
This town's lost it's charm and now I need to go

Am                 C
Ten years and it's withered and grey

G                  Dm         Am
Come rescue me and take me away


Am


            Am                       C
There's the house that I grew up in, right down the street

     G                     Dm
It's hauntingly quiet, the shadows will creep,

        Am                   C
and the tired old faces walk passed as I stand.

G                          Dm        Am
I'll wait right here, take me by the hand


Am


Em             Am
These days are numbered my dear

Em             C
These days are gone


C

            D           Bm
So we left, through the night

G                    Em
Sending the chaos to life

              D           Bm
And we broke, strings and hearts

      G                   Em
And I knew it was time to depart


(Guitar II picks chords from now)

Am


       Am                       C
I feel tallest when I have been running with wolves

G                 Dm            
Forever seeking a life of cheap thrills

       Am                     C
If you sit here beside me you can't stay here long

G                             Dm          Am
The sun will rise and it will all seem so wrong


Am


Em             Am
These days are numbered my dear

Em             C
These days are gone


C

            D           Bm
So we left, through the night

G                    Em
Sending the chaos to life

              D           Bm
And we broke, strings and hearts

      G                   Em
And I knew it was time to depart ooohhh

*
D    Bm    G    Em                  D
                     It was time to depart

Bm   G    Em    Em

Guitar II:*
                                                                 x2
e|--2h3-5-2-2-2-2--2h3-5-2-2-2-2--2h3-5-2-2-2-2--3-3-3-3-2-2-----|
b|-----------------------------------------------------------3~--|
G|---------------------------------------------------------------|
D|---------------------------------------------------------------|
A|---------------------------------------------------------------|
E|---------------------------------------------------------------|


Am                C
Pick me up by the side of the road

G                        Dm        Am
This town wants more but I need to go

Am   Am

Am (Only one strum)

Добавлено: 17.06.2013
Вам также может быть интересно:
Другие материалы по этой песне:
  • Аккорды и текст

Страница создана 17.06.2013
http://primanota.ru/oh-me-my/armidale-chords.htm
Привет, Гость.
Предлагаем пройти революционный курс по гитаре.
Подарок от PrimaNota.Ru, забирай!