PrimaNota.ru - самый крупный в мире бесплатный архив песенных текстов, аккордов, табулатур и нот


Oh Gravity - Falling - таба, видео

Регистрация Запомнить меня
Войти через:  Facebook Google Twitter Vk Yandex Mail.ru

Oh Gravity - Falling - таба, видео

Печатать
Просмотров: 152
-------------------------------------------------------------------------------
                             FALLING - Oh Gravity
-------------------------------------------------------------------------------
Tabbed by: Eli
E-mail: aeioutp@gmail.com


Intro:

e|--------------------------------------------------------------------------------------0---2---0|
B|------0-------0-------0-----------------------5-------5---------------2-----------4------------|
G|--1-------1-------1-------------------6-------6-------6-----------2---2-------4---4---4---4---4|
D|2---2-2-2---2-2-2---2-2-2-4---4---6---6---6---6---6---6---6---6-----------4--------------------|
A|----------------------------6---4---4---4---4---4---4---4-------0---0---0---2---2---2---2---2--|
E|------------------------------------------------------------7----------------------------------|


Verse:

e|------0-------0-------0---------|
B|------0-------0-------0---------|
G|--1-------1-------1-------1---1-|
D|2---2---2---2---2---2---2---2---|
A|--------------------------------|
E|--------------------------------|

e|------0-------0-------0-------------------------------------------------------------------------|
B|------0-------0-------0-------0-------5-------5-------5---------------2---------------4-------4-|
G|--1-------1-------1-------1-----------6-------6-------6-----------2---2---2-----------4-------4-|
D|2---2---2---2---2---2---2---1-----6-------6-------6-------6---6---------------4---4-------4-----|
A|--------------------------------4---4---4---4---4---4---4---2---0---0---0---0---2---2---2---2---|
E|------------------------------------------------------------------------------------------------|
  I-                      feel like I'm falling,        seriously falling,      hard     for you
  Oh                      forever is a long time,    but far from enough time, to spend with you


Chorus: (x2)

e|------0-------0-------0-----------------------------------------|
B|------0-------0-------0---------------5---------------2---------|
G|--1-------1-------1-------1---1-------6-----------2---2---1-2-1-|
D|2---2---2---2---2---2---2---1-----6-------6---4-----------------|
A|--------------------------------4---4---4---4---0---0---0-------|
E|----------------------------------------------------------------|
                           I will always,                    be there


Verse:

so fall,              I'll be behind you,       I'll be there to guide you when you've lost your way
ya                    forever's a long time,    but far from enough time, to spend, with you



Bridge:

e|------0-------0-------0-----------------------------------------|
B|------0-------0-------0-------0-------5-------5-------5-------5-|
G|--1-------1-------1-------1-----------6-------6-------6-------6-|
D|2---2---2---2---2---2---2---1-----6-------6-------6-------6-----|
A|--------------------------------4---4---4---4---4---4---4---4---|
E|----------------------------------------------------------------|
So go and call your parents, (and) tell them the good news
say you've fallen hard and there someone who needs to meet you
e|----------------------------------------------------------------|
B|------2-------2-------2-------2-------4-------4-------4-------4-|
G|--2---2---2---2---2---2---2---2-------4-------4-------4-------4-|
D|----------------------------------4-------4-------4-------4-----|
A|0---0---0---0---0---0---0---0---2---2---2---2---2---2---2---2---|
E|----------------------------------------------------------------|
we'll pick out a white dress, (and) grab two golden bands
the world will stare in jealousy because they don't understand
     [A] [B] [E] 
like you and me-


Chorus (x4)


Verse:
                                                                                           [E]
 I-                      feel like I've fallen,        seriously fallen,      hard     for you

Добавлено: 15.05.2016
Другие материалы по этой песне:
  • Аккорды и текст

Страница создана 15.05.2016
http://primanota.ru/oh-gravity/falling-chords.htm
Привет, Гость.
Предлагаем пройти революционный курс по гитаре.
Подарок от PrimaNota.Ru, забирай!