PrimaNota.ru - самый крупный в мире бесплатный архив песенных текстов, аккордов, табулатур и нот


Ogie Alcasid - Pangako Ko - таба, видео

Регистрация Запомнить меня
Войти через:  Facebook Google Twitter Vk Yandex Mail.ru

Ogie Alcasid - Pangako Ko - таба, видео

Печатать
Просмотров: 29
Pangako Ko by Ogie Alcasid

Tabs written and arranged by Edwin-E (in YouTube)
Blog: http://guitarplucking.blogspot.com
Facebook Page: http://facebook.com/EdwinEGuitar

Edwin-E Video Cover:  http://www.youtube.com/watch?v=ZvNZlZOLW_Y


E|-----------------------3-----------------------|
B|-----------0-----------0--0--------------------|
G|-----0--2-----------0--0-----0--2--2--2--4-----|
D|--0--------------0--------------------------5--|
A|--------------2-----------------2--------------|
E|-----------3-----------------------------------|
         G        Bm          
 Pangako ko na hindi magbabago


E|-----0-----------0--0-----------------------------|
B|--------------1--1-----3--1--3--------3-----------|
G|-----------0-----0-----------------4--------------|
D|--5-----2-----------------------4--------------2--|
A|-----3-----------------------2--------------2-----|
E|-----------------------------------------0--------|
     C          Bm  Em
 Ang puso kong ito

E|-----------------------2--------------------------|
B|--0--1--1--1--0-----3--------3--3--3--5--0--------|
G|-----------------2--------2-----------------------|
D|-----------------0-----------------------------2--|
A|-----0-----------------------2--------------2-----|
E|-----------------------------------------0--------|
     Am7         D      Bm          Em 
 At magpakailan man tanging ikaw lamang


E|-----------------------------------------2--|
B|--3--1--1--0--------------------------3--3--|
G|--------------0-----0--------------2-----2--|
D|-----------------2-----2--2--0--0--------0--|
A|-----0--------------------------------------|
E|--------------------------------------------|
     Am7           D
 Ang mamahalin, sasambahin

E|-----------------------3-----------------------|
B|-----------0-----------0--0--------------------|
G|-----0--2-----------0--0-----0--2--2--2--4-----|
D|--0--------------0--------------------------5--|
A|--------------2-----------------2--------------|
E|-----------3-----------------------------------|
         G        Bm          
 Pangako ko na hindi maglalaho


E|--------0-----------0--0-----------------------------|
B|-----------------1--1-----3--1--3--------3-----------|
G|--------------0-----0-----------------4--------------|
D|--5--5-----2-----------------------4--------------2--|
A|--------3-----------------------2--------------2-----|
E|--------------------------------------------0--------|
        C           Bm  Em
 Ang pag-ibig ko sa 'yo

E|--------------------------2--------------------------|
B|--0--1--1--1--0--0-----3--------3--3--3--5--0--------|
G|--------------------2--------2-----------------------|
D|-----------------0--------------------------------2--|
A|-----0--------------------------2--------------2-----|
E|--------------------------------------------0--------|
   Am7         D       Bm                      
 Sa hirap at ginhawa ay tayong


E|-------------------------------0-----------|
B|----3--1--0--0--------------0-----3--0--3--|
G|-------------------0-----0--------------2--|
D|----------------2-----2--------0--------0--|
A|-------------0-----------------------------|
E|-------------------------------------------|
          Am7                D         
 Ang magkasama,  Sana'y wag nang mangamba 


E|-----2--3--------------3-----5--3--2--------------|
B|--3--------3-----------3--3-----------5--5--3--3--|
G|--------------------0--0-----------------------4--|
D|-----------------0-----------------------------4--|
A|--------------2--------------2--------------------|
E|-----------3--------------------------------------|
         G     Bm                      
 Pangako ko kahit anong mangyari


E|--0--------0--2--3--2--------------------|
B|-----------------------3-----------------|
G|--------0-----------------4--------------|
D|-----2--------0--------------4--------2--|
A|--3--------------------2-----------2-----|
E|--------------------------------0--------|
  C    D     Bm  Em 
 'Di kita iiwan

E|--------------------------------------------------|
B|--0--1--1--1--0--------------3--3--3--5--0--------|
G|-----------------2--2--2--2-----------------------|
D|-----------------------------------------------2--|
A|-----0-----------0-----------2--------------2-----|
E|-----------------------------------------0--------|
    Am7         D           Bm          Em             
 Kahit anong bagyo sa buhay nati'y dumating


E|--------------------0--0-----------2--|
B|--0--1--------1--1--------3-----3--3--|
G|-----------0-----------------2-----2--|
D|--------2--------------0--------------|
A|-----0--------------------------------|
E|--------------------------------------|
    Am7         D  
 Ay kakayanin natin


E|-----2--3--------------3-----5--3--2--------------|
B|--3--------3-----------3--3-----------5--5--3--3--|
G|--------------------0--0-----------------------4--|
D|-----------------0-----------------------------4--|
A|--------------2--------------2--------------------|
E|-----------3--------------------------------------|
         G     BM                 
 Pangako ko kahit na pumuti na


E|--0--------0--2--3--2--------------------|
B|-----------------------3-----------------|
G|--------0-----------------4--------------|
D|-----2--------0--------------4--------2--|
A|--3--------------------2-----------2-----|
E|--------------------------------0--------|
  C     D    Bm  Em
 Ang buhok natin


E|--------------------------2-----------------------|
B|--0--1-----1--1--0-----3--------3--3--5--0--------|
G|--------------------2--------2--------------------|
D|--------2-----------0--------------------------2--|
A|-----0--------------------------2-----------2-----|
E|-----------------------------------------0--------|
     Am7          D      Bm   Em 
 Tanging ikaw pa rin ang iibigin


E|--------------------0--0-----------2-----------------------3--|
B|--3--1--0-----------------3-----3--3--------0-----------0-----|
G|-----------0-----0-----------2-----2--2--2-----------0--------|
D|--------------2--------0--------------------------0-----------|
A|-----0-----------------------------------------2--------------|
E|--------------------------------------------3-----------------|
    Am7         D   
 Pangako ko sa 'yo
 

(Follow chords from the beginning)

AD LIB 

Pangako ko kahit anong mangyari di kita iiwan 
Kahit anong bagyo sa buhay nati'y dumating ay kakayanin natin 
Pangako ko kahit na pumuti na ang buhok natin 
Tanging ikaw pa rin ang iibigin 
Pangako ko sa 'yo 


Добавлено: 20.12.2015
Другие материалы по этой песне:
  • Аккорды и текст

Страница создана 20.12.2015
http://primanota.ru/ogie-alcasid/pangako-ko-chords.htm
Привет, Гость.
Предлагаем пройти революционный курс по гитаре.
Подарок от PrimaNota.Ru, забирай!