PrimaNota.ru - самый крупный в мире бесплатный архив песенных текстов, аккордов, табулатур и нот


Offspring - Stuff Is Messed Up - текст песни, таба, бас-таба, видео

Регистрация Запомнить меня
Войти через:  Facebook Google Twitter Vk Yandex Mail.ru

Offspring - Stuff Is Messed Up - текст песни, таба, бас-таба, видео

Печатать
Просмотров: 633
Уроки эстрадного вокала в Санкт-Петербурге
Song:Stuff is Messed Up
Album:Rise and Fall,Rage and Grace
Artist:The Offspring
Date Tabbed:June,2008
Guitar Tabber:Ryan Manongdo/18/Vancouver,Ca
              rhyezkie@gmail.com(gtalk)
              no_falter0x@yahoo.com(YM,friendster,facebook&myspace)

For any comments,questions or suggestions,just post a comment or PM me.Pilipino Rules!!

If you guys like the Half-Step down version,just send me a message:)
Gtr.Legends:
~ - let it ring
. - palm muting
x - dead string

Gtr.Tuning:Standard(Normal)

Intro:
e|----------------------------------------------------|
B|----------------------------------------------------|
G|-8~---8/----66-8~---8/-----8~---8/-----66-8~---8/---|
D|-8~---8/----66-8~---8/-----8~---8/-----66-8~---8/---|
A|-6~---6/----44-6~---6/-----6~---6/-----44-6~---6/---|
E|----------------------------------------------------|

Verse 1:Now I don't know...
e|-------------      -------------------------------------------
B|-------------      -------------------------------------------
G|-66-8~---8/-- 4x   -8-8888-6---8-8888-6---8-8888-------4444---
D|-66-8~---8/-- Then -8-8888-6---8-8888-6---8-8888--6666-4444---
A|-44-6~---6/--      -6-6666-4---6-6666-4---6-6666--6666-2222---
E|-------------      -------------------------------4444--------
                      .          .          . 

e|----------------------------------------------------|
B|----------------------------------------------------|
G|-8-8888-6---8-6666-6---8-8888-6--11111111-----------|
D|-8-8888-6---8-8888-6---8-8888-6--11111111--999999---|
A|-6-6666-4---6-6666-4---6-6666-4---9-9-9-9--999999---|
E|-------------------------------------------777777---|
   .          .          .


Pre-Chorus:I don't know much...
e|-------------------|
B|-------------------|
G|-------------------|
D|-6~-----Drumbeat---|
A|-6~----------------|
E|-4~----------------|

Chorus:Lalalala...
e|--------------------      ------|
B|--------------------      ------|
G|-88-1111------------ 4x   -3~---| 
D|-88-1111-66-9999-11- Then -3~---|
A|-66--9-9-66-9999-11-      -1~---|
E|---------44-7777--9-      ------|

e|--------------------      -----------|
B|--------------------      -----------|
G|-88-1010------------ 4x   -3~--66~---| 
D|-88-1010-66-9999-11- Then -3~--66~---|
A|-66--9-9-66-9999-11-      -1~--44~---|
E|---------44-7777--9-      -----------|


Pre-Verse 2:
e|--------------|
B|--------------|
G|-66-8~---8/---| 2x
D|-66-8~---8/---|
A|-44-6~---6/---|
E|--------------|

Verse 2:Now thank God...
e|-------------------------------------------|
B|-------------------------------------------|
G|-8-8888-6---8-8888-6---8-6666-------4444---|
D|-8-8888-6---8-8888-6---8-6666--6666-4444---|
A|-6-6666-4---6-6666-4---6-6666--6666-2222---|
E|-------------------------------4444--------|
   .          .          . 

e|---------------------------------------------------|
B|---------------------------------------------------|
G|-8-8888-6---8-8888-6---8-8888-6--11111111----------|
D|-8-8888-6---8-8888-6---8-8888-6--11111111--99999---|
A|-6-6666-4---6-6666-4---6-6666-4---9-9-9-9--99999---|
E|-------------------------------------------77777---|
    .          .          .

Repeat Pre-Chorus:

Repeat Chorus:

Bridge prt.1:
e|-------------------------------------------------------------------------|
B|-------------------------------------------------------------------------|
G|-13333333-11-8888-11--13131313-11-8888-11-13131313-11-8888---------------|
D|-xxxxxxxx--x-8888--x--xxxxxxxx--x-8888--x-xxxxxxxx--x-8888-888888-1111---|
A|-11111111--9-6666--9--11111111--9-6666--9-11111111--9-6666-888888--x-x---|
E|-----------------------------------------------------------666666--9-9---|

Bridge prt.2:Shopping sprees,RPG's...
e|------------------|
B|------------------|
G|-88---88--88888---|
D|-88---88--88888---|
A|-66---66--66666---|
E|------------------|

Bridge prt.3:I don't know much...
e|--------------|
B|--------------|
G|--------------|
D|-6~------8~---|
A|-6~------8~---|
E|-4~------6~---|

Repeat Chorus:

Last Chord:
e|------|
B|------|
G|-88---|
D|-88---|
A|-66---|
E|------|
   ..

End...


Stuff is Messed Up Lyrics:

Verse 1
Now I don't know, and it's hard to explain
But it seems like things are just kind of insane
Because the world is crying
But nobody's listening
So please leave a message on my cell phone
I see bullets getting better
Biblical weather
And that guy on TV is like a total asshole
Who are you wearing tonight?
Celebrity fundraiser, tight!
Black ties making wrongs right
How's your social Band-Aid?

Pre-Chorus:
I don't know much
I don't know too much
But I know this
Shit is fucked up!

Chorus:
Lalalalala
I guess it's all about the dream
The ends justify the means
You know it's all about the dream
The ends justify the means

Verse 2:
Now thank god for the media, for saving the day
Putting it all into perspective in a responsible way
With more celebrity news
Typical bullshit views
I think we're losing this fight
Sponsored by Bud Light
And now we're rockin' the casbah
And taking the flak
The genie's out of the bottle, and we can't put it back
All this stuff
It's overwhelming my brain
Can you see the storm comin'?
It's coming this way

Repeat Pre-Chorus:

Repeat Chorus:

Bridge prt.2:
Shopping Sprees, RPG's
Ecstasy
Atrophy
Genocide
Pimp my ride
Politize
Euphemize
Injustice everywhere
Apathy
I don't care
Hurricanes
Climate change
Huh!
Therapy, I won't tell
Rehab and LOL
Worldwide calamity
TV Reality
Euthanize, supersize
Death squads and boob jobs
VIP infamy
Gratify instantly

I don't know much
I don't know too much
I don't know much
I don't know too much

Repeat Chorus:
Добавлено: 15.05.2012
Другие материалы по этой песне:

Страница создана 26.02.2012
http://primanota.ru/offspring/stuff-is-messed-up-chords.htm
Привет, Гость.
Предлагаем пройти революционный курс по гитаре.
Подарок от PrimaNota.Ru, забирай!