PrimaNota.ru - самый крупный в мире бесплатный архив песенных текстов, аккордов, табулатур и нот


Offspring - Special Delivery - аккорды и текст, таба, бас-таба, драм-таба, видео

Регистрация Запомнить меня
Войти через:  Facebook Google Twitter Vk Yandex Mail.ru

Offspring - Special Delivery - аккорды и текст, таба, бас-таба, драм-таба, видео

Печатать
Просмотров: 916
Уроки эстрадного вокала в Санкт-Петербурге
Special Delivery
Offspring



Date: Mon, 5 Mar 2001 16:52:18 -0500
From: Joe M 
Subject: o/offspring/special_delivery.crd

Song: Special Delivery
Artist: The Offspring
Album: Conspiracy of One
As tabbed by Joe Muggah

I inclded the bass for the verse because there are
no guitars. The bass basically follows the guitars
for the rest of the parts.

Bass Verse 1
G----------------------------------------------------
D----------------------2-3-3-3-2---------------------
A----------------------------------------------------
E-1-1---0-1-1---0-1-1--------------------------------
(Hey now do you see...)

Bass Verse 2 (continues off Bass Verse 1)
G----------------------------------------------------
D----------------------------------------------------
A-1-1---0-1-1---0-1-1--0-1-0----------6-6-6-6-6-6-6-6
E----------------------------1-0--04----------------

Chorus
e----------------------------------------------------
B----------------------------------------------------
G-10-10-10--8--10-10-10-10/13--10-8-10---------8-----
D-10-10-10--8--10-10-10-10/13--10-8-10--6-(x8)-8-(x8)
A--8--8--8--6---8--8--8--8/11---8-6--8--6------6-----
E---------------------------------------4------------
(It'll blow you away...)

Post-Chorus
e----------------------------------------------------
B----------------------------------------------------
G-6----------------8---------------------------------
D-6-(x12)--8-(x6)--8-(x6)----------------------------
A-4--------8-------6---------------------------------
E----------6-----------------------------------------
(Then I'll be...)

Bridge
e----------------------------------------------------
B----------------------------------------------------
G----------------------8/10-10-10--------------------
D-3--------------------8/10-10-10--------------------
A-3-(x56, palm muted)--6/-8--8--8--------------------
E-1--------------------------------------------------
(But you can't kill...)

B Verse 1
B Verse 2
Chorus
B Verse 1
B Verse 2
Chorus
Post-Chorus
B Verse 1, Bridge
Chorus
Post-Chorus


Добавлено: 19.09.2013
Другие материалы по этой песне:

Страница создана 17.03.2012
http://primanota.ru/offspring/special-delivery-chords.htm
Привет, Гость.
Предлагаем пройти революционный курс по гитаре.
Подарок от PrimaNota.Ru, забирай!