PrimaNota.ru - самый крупный в мире бесплатный архив песенных текстов, аккордов, табулатур и нот


Offspring - Smash It Up - аккорды и текст, таба, бас-таба, видео

Регистрация Запомнить меня
Войти через:  Facebook Google Twitter Vk Yandex Mail.ru

Offspring - Smash It Up - аккорды и текст, таба, бас-таба, видео

Печатать
Просмотров: 374
Smash It Up
Offspring
THE OFFSPRING
SMASH IT UP

Tabbed by: Andrew Unguryan
andrew_unguryan@hotmail.com

(Intro)

|-0---2---0---0---0---2---0---0---0---0-0-0-0-0-0-0-0-0-0-0-----------------|
|-0---0---3---2---0---0---3---2---0---0-0-0-0-0-0-0-0-0-0-0-----------------|
|-0---0---0---0---0---0---0---0---0---0-0-0-0-0-0-0-0-0-0-0-----------------|
|-2---2---2---2---2---2---2---2---2---2-2-2-2-2-2-2-2-2-2-2-----------------|
|-2---2---2---2---2---2---2---2---2---2-2-2-2-2-2-2-2-2-2-2-----------------|
|-0---0---0---0---0---0---0---0---0---0-0-0-0-0-0-0-0-0-0-0-----------------|

C-G D-A Em (4x)

G5 F5 A5 F5 A5 F5 G5 (2x)

  G5                        C5
We've been playing now for much too long 
                            G5
And never gonna dance to a different song 
                                   C5
I'm gonna scream and shout till my dying breath 
                                   G5
I'm gonna smash it up till there's nothing left 

G5 F5 A5 F5            A5 F5 
      Ooh     smash it up
G5
      Smash it up smash it up 
G5 F5 A5 F5            A5 F5
      Ooh     smash it up 
G5
      Smash it up smash it up 

People call me weird, oh it's such a shame 
Maybe it's my clothes, must be to blame 
I don't even care if I look a mess 
Don't wanna be a sucker like all the rest 

Ooh smash it up
Smash it up smash it up 
Ooh smash it up 
         C5 B5          D5 G5 C5 B5 D5
Smash it up    smash it up 

(Solo 1)

|-0--------------------------------------------10----10----10----10----10---|
|-0------------------8---------8--------8---12----12----12----12----12------|
|-0-----777-9---9---------9---------9---------------------------------------|
|-2---------------99---99---99---99---9---9---------------------------------|
|-2-------------------------------------------------------------------------|
|-0-------------------------------------------------------------------------|

F#5 A5 E5 (4x)



(Solo 2 – while playing chorus)

|-14--12--11----------------------------------------------------------------|
|-------------10--12--------------------------------------------------------|
|---------------------9--11-------------------------------------------------|
|---------------------------------------------------------------------------|
|---------------------------------------------------------------------------|
|---------------------------------------------------------------------------|

         B5
Smash it up 
                                A5
And you can keep your crystal glasses 
         B5
Smash it up 
                        A5
And you can see a very dead-way end 
         B5
Smash it up 
                            A5
And you can stick a frothy lager 
         B5
Smash it up 
Up the fuck with your lesson 

We've been playing now for much too long 
And never gonna dance to a different song 
I'm gonna scream and shout till my dying breath 
I'm gonna smash it up till there's nothing left 

    F5         C5           G5
And everybody's  smashing things down 
       F5         C5           G5
I said everybody's  smashing things down
Добавлено: 24.04.2012
Другие материалы по этой песне:

Страница создана 09.03.2012
http://primanota.ru/offspring/smash-it-up-chords.htm
Привет, Гость.
Предлагаем пройти революционный курс по гитаре.
Подарок от PrimaNota.Ru, забирай!