PrimaNota.ru - самый крупный в мире бесплатный архив песенных текстов, аккордов, табулатур и нот


Offspring - Rise And Fall Rage And Grace - бас-таба, видео

Регистрация Запомнить меня
Войти через:  Facebook Google Twitter Vk Yandex Mail.ru

Offspring - Rise And Fall Rage And Grace - бас-таба, видео

Печатать
Просмотров: 342
++++++++++++++++++++++++++++++++++++++++++++++++
| The Offspring- Rise And Fall, Rage And Grace |
++++++++++++++++++++++++++++++++++++++++++++++++


Bass Tab
Album: "Rise And Fall, Rage And Grace" -- 2008
Tabbed By: RaiLeff
E-Mail: Underground__Dora@Hotmail.Com


After a long time tabbing I finally
finished The Offspring's latest work
Its absolutely great, I simply love all the new songs
These guys are the best, I cant die without seeing
them live first
All these tabs are my own tabber's hard work
Ok, the songs are perfect and so are the tabs
So enjoy and rate fairly thanks!!!
Cheers!


..::RaiLeff::.. [!]

______________________________________________________

Tuning: EADG


Keys:

| x: Mute
| ~: Let Ring
| /: Slide Up
| \: Slide Down
| h: Hammer On
| p: Pull Off


Tracks:

1. Half-Truism
2. Trust In You
3. You're Gonna Go Far, Kid
4. Hammerhead
5. A Lot Like Me
6. Takes Me Nowhere
7. Kristy, Are You Doing Ok?
8. Nothingtown
9. Stuff Is Messed Up
10. Fix You
11. Lets Hear It For The Rock Bottom
12. Rise And Fall
13. O.C. Life (Bonus Track)


_______________________________________________________

1.

++++++++++++++++++++++++++++++
| The Offspring- Half-Truism |
++++++++++++++++++++++++++++++


"Well its a hell of a good day to die..."

Tuning: EADG


Verse
"One is for envy, and one is for spite..."
1.
G|-------------------------------------------------------------------------------------------------|
D|-------------------------------------------------------------------------------------------------|
A|-77777-77777-77777-77777-33333-33333-33333-33333-------------------------55555-55555-55555-55555-|
E|-------------------------------------------------33333-33333-33333-33333-------------------------|

"Your self-liberation will leave this behind..."
2.
G|-------------------------------------------------------------------------------------------------|
D|-------------------------------------------------55555-55555-55555-55555-------------------------|
A|-77777-77777-77777-77777-33333-33333-33333-33333-------------------------55555-55555-55555-55555-|
E|-------------------------------------------------------------------------------------------------|

Chorus
"If we dont make it alive..."
3.
G|-----------------------------------------------------------------|
D|---------------------------------2-2-2-2-0-0-0-0---------0-0-0-0-|
A|-----------------5~--5~-55~--22~-----------------3-3-3-3---------|
E|-3~--3~-33~--33~-------------------------------------------------|

"And its ashes to ashes again..."
4.
G|-----------------------------------------------------------------|
D|-5~--5~-55~--542-----------------2-2-2-2-0-0-0-0---------0-0-0-0-|
A|-----------------5~--5~-55~--22~-----------------3-3-3-3---------|
E|-----------------------------------------------------------------|

Outro
5.
G|----------------|
D|----------------|
A|----------------|
E|-3~--3~-33~--3x-|

Verse
"The banner you're waving is burning and red..."
6.
G|-------------------------------------------------------------------------------------------------|
D|-------------------------------------------------------------------------------------------------|
A|-77777-77777-77777-77777-33333-33333-33333-33333-------------------------55555-55555-55555-55555-|
E|-------------------------------------------------33333-33333-33333-33333-------------------------|

"Your own liberation will leave them behind..."
7.
G|-------------------------------------------------------------------------------------------------|
D|-------------------------------------------------55555-55555-55555-55555-------------------------|
A|-77777-77777-77777-77777-33333-33333-33333-33333-------------------------55555-55555-55555-55555-|
E|-------------------------------------------------------------------------------------------------|

Chorus
"If we dont make it alive..."
8.
G|-----------------------------------------------------------------|
D|---------------------------------2-2-2-2-0-0-0-0---------0-0-0-0-|
A|-----------------5~--5~-55~--22~-----------------3-3-3-3---------|
E|-3~--3~-33~--33~-------------------------------------------------|

"And its ashes to ashes again..."
9.
G|-----------------------------------------------------------------|
D|-5~--5~-55~--542-----------------2-2-2-2-0-0-0-0---------0-0-0-0-|
A|-----------------5~--5~-55~--22~-----------------3-3-3-3---------|
E|-----------------------------------------------------------------|

Outro
10.
G|-------------------|
D|-2~----------------|
A|-------------------|
E|-------------------|

Bridge
"The banner you're waving is burning and red..."
11.
G|------------------------------------------------------------------------------------------------|
D|------------------------------------------------------------------------------------------------|
A|-7~-77~-7~-77-7-5-3~-33~-3~-33-33------------------55555-55555-55555-55555-55555-55555-55555555-|
E|----------------------------------3-~33~-3~-33-3-3----------------------------------------------|

Chorus
"If we dont make it alive..."
12.
G|-----------------------------------------------------------------|
D|---------------------------------2-2-2-2-0-0-0-0---------0-0-0-0-|
A|-------------------------------------------------3-3-3-3---------|
E|-----------------------------------------------------------------|

"And its ashes to ashes again..."
13.
G|-----------------------------------------------------------------|
D|-5~--5~-55~--542-----------------2-2-2-2-0-0-0-0---------0-0-0-0-|
A|-----------------5~--5~-55~--22~-----------------3-3-3-3---------|
E|-----------------------------------------------------------------|

"All our light that shines strong only lasts for so long..."
14.
G|---------------------------------|
D|-2-2-2-2-0-0-0-0---------0-0-0-0-|
A|-----------------3-3-3-3---------|
E|---------------------------------|

Outro
15.
G|-----------------|
D|-----------------|
A|-----------------|
E|-3~--3~-33~--33x-|


Lyrics:


One is for envy
And one just for spite
The cuts in my heart
They show in your eyes
Don
Добавлено: 27.10.2013
Другие материалы по этой песне:
  • Аккорды и текст

Страница создана 27.10.2013
http://primanota.ru/offspring/rise-and-fall-rage-and-grace-chords.htm
Привет, Гость.
Предлагаем пройти революционный курс по гитаре.
Подарок от PrimaNota.Ru, забирай!