PrimaNota.ru - самый крупный в мире бесплатный архив песенных текстов, аккордов, табулатур и нот


Offspring - Out Of Control - таба, видео

Регистрация Запомнить меня
Войти через:  Facebook Google Twitter Vk Yandex Mail.ru

Offspring - Out Of Control - таба, видео

Печатать
Просмотров: 262
Song: Out on Patrol
Artist: The Offspring
Album: The Offspring
As tabbed by Joe Muggah

Intro
e--0-0-0-0-0-0--0-0-0-0-0-0--0-0-0-0-0-0--0-0-0-0-0-0------
B--1-1-1-1-1-1--3-3-3-3-3-3--0-0-0-0-0-0--0-0-0-0-0-0------
G--0-0-0-0-0-0--0-0-0-0-0-0--0-0-0-0-0-0--0-0-0-0-0-0------
D--2-2-2-2-2-2--2-2-2-2-2-2--2-2-2-2-2-2--2-2-2-2-2-2------
A--3-3-3-3-3-3--3-3-3-3-3-3--2-2-2-2-2-2--2-2-2-2-2-2------
E----------------------------0-0-0-0-0-0--0-0-0-0-0-0------

(continued; end on)
e--0-0-0-0-0-0--2-2-2-2-2-2--------------------------------
B--1-1-1-1-1-1--3-3-3-3-3-3--------------------------------
G--0-0-0-0-0-0--2-2-2-2-2-2-----9----9----9----9-----------
D--2-2-2-2-2-2--0-0-0-0-0-0-----9----9----9----9-----------
A--3-3-3-3-3-3------------------7----7----7----7-----------
E----------------------------------------------------------

Chorus
e----------------------------------------------------------
B----------------------------------------------------------
G--9--9-9--7--7-7----------5--5--5-------------5--5-5------
D--9--9-9--7--7-7--7--7-7--5--5--5--5--2--2-2--5--5-5------
A--7--7-7--5--5-5--7--7-7--3--3--3--5--2--2-2--3--3-3------
E------------------5--5-5-----------3--0--0-0--------------

(continued)
e----------------------------------------------------------
B----------------------------------------------------------
G--7--7-7-----------5-5-5-5--------------------------------
D--7--7-7--7-7-7-7--5-5-5-5--------------------------------
A--5--5-5--7-7-7-7--3-3-3-3--------------------------------
E----------5-5-5-5-----------------------------------------

Verse
*This is exactly the same as the chorus except palm muted*

Riff 1
e--7/10-10-10-10---9--7------------------------------------
B--7/10-10-10-10--10--7------------------------------------
G----------------------------------------------------------
D----------------------------------------------------------
A----------------------------------------------------------
E----------------------------------------------------------

Bridge
e--0-0-0-0-0-0--0-0-0-0-0-0--0-0-0-0-0-0--0-0-0-0-0-0------
B--1-1-1-1-1-1--3-3-3-3-3-3--0-0-0-0-0-0--0-0-0-0-0-0------
G--0-0-0-0-0-0--0-0-0-0-0-0--0-0-0-0-0-0--0-0-0-0-0-0------
D--2-2-2-2-2-2--2-2-2-2-2-2--2-2-2-2-2-2--2-2-2-2-2-2------
A--3-3-3-3-3-3--3-3-3-3-3-3--2-2-2-2-2-2--2-2-2-2-2-2------
E----------------------------0-0-0-0-0-0--0-0-0-0-0-0------

(continued)
e--0-0-0-0-0-0--0-0-0-0-0-0--0------------0----------------
B--1-1-1-1-1-1--3-3-3-3-3-3--0-----------12----------------
G--0-0-0-0-0-0--0-0-0-0-0-0--0-----------------------------
D--2-2-2-2-2-2--2-2-2-2-2-2--2-----------------------------
A--3-3-3-3-3-3--3-3-3-3-3-3--2-----------------------------
E----------------------------0-----------------------------

Riff 2
e----------------------------------------------------------
B----------------------------------------------------------
G--9---------7-9----------7-9------------------------------
D--x---------x-x----------x-x------------------------------
A--7---------5-7----------5-7------------------------------
E----------------------------------------------------------

Outro
e----------------------------------------------------------
B----------------------------------------------------------
G--9-9-9-9------9-9-9-9------------------------------------
D--9-9-9-9------9-9-9-9------------------------------------
A--7-7-7-7------7-7-7-7------------------------------------
E----------------------------------------------------------


Intro
Chorus
Verse
Verse, Riff 1
Chorus
Bridge
Verse
Verse, Riff 1
Chorus
Bridge, Intro
Intro, Riff 2
Chorus
Outro
     
Добавлено: 20.11.2013
Другие материалы по этой песне:
  • Аккорды и текст

Страница создана 20.11.2013
http://primanota.ru/offspring/out-of-control-chords.htm
Привет, Гость.
Предлагаем пройти революционный курс по гитаре.
Подарок от PrimaNota.Ru, забирай!