PrimaNota.ru - самый крупный в мире бесплатный архив песенных текстов, аккордов, табулатур и нот


Offspring - Original Pranckster - аккорды и текст, видео

Регистрация Запомнить меня
Войти через:  Facebook Google Twitter Vk Yandex Mail.ru

Offspring - Original Pranckster - аккорды и текст, видео

Печатать
Просмотров: 280
Уроки эстрадного вокала в Санкт-Петербурге
Original Pranckster
Offspring
Intro/interlude
E|----------------------|
B|----------------------|
G|----------------------|
D|----------------------|
A|-0---0----3----3----0-|
E|----------------------|
 
E|---------------------------------|
B|---------------------------------|
G|---------------------------------|
D|---------------------------------|
A|-0--0----3----3----7---7---6---5-|
E|---------------------------------|

E|------------------------------|
B|------------------------------|
G|------------------------------|
D|------------------------------|
A|-0---0---3---3----0---------4-|
E|------------------------------|

E|-----------------------------------------------------|
B|-----------------------------------------------------|
G|-----------------------------------------------------|
D|-----------------------------------------------------|
A|-0----0---3---3-----7---7---6---6---5----3----5----3-|
E|-----------------------------------------------------|

Main Riff
E|----------------------------------------------------|
B|----------------------------------------------------|
G|----------------------------------------------------|
D|----------------------------------------------------|
A|-0---0---3---3----7---7---6---6---5---5---3---5---3-|
E|----------------------------------------------------|

Dividing Part            m=palm muted
E|-------------------------------------------------------------|
B|-------------------------------------------------------------|
G|-------------------------------------------------------------|
D|-5---5---5---5---5---5--5---5--2---2---2---2---2---2---2---2-|
A|-5---5---5---5---5---5--5---5--2---2---2---2---2---2---2---2-|
E|-3---3---3---3---3---3--3---3--0---0---0---0---0---0---0---0-|

Pre chorus
E|-------------------------------------------|
B|-------------------------------------------|
G|-2---5---5---9---8---7---777-----5---7---5-|
D|-2---5---5---9---8---7---777-----5---7---5-|
A|-0---3---3---7---6---5---555-----3---5---3-|
E|-------------------------------------------|

Main chorus        x3
E|-----------------------------------------|
B|-----------------------------------------|
G|-5---2--------7--7--7---------12--12--12-|
D|-5---2--------7--7--7---------12--12--12-|
A|-3---0--------5--5--5---------10--10--10-|
E|-----------------------------------------|

E|-----------------------------------------------|
B|-----------------------------------------------|
G|-5---2---5---2---7--7--7--7----5--5--5--5----2-|
D|-5---2---5---2---7--7--7--7----5--5--5--5----2-|
A|-3---0---3---0---5--5--5--5----3--3--3--3----0-|
E|-----------------------------------------------|

Ending
E|-------------------------------------------------------------|
B|-------------------------------------------------------------|
G|-5--2--5--2--7--7--7--7--5--2-5--2--7--7--7--7--5--5--5-5--2-|
D|-5--2--5--2--7--7--7--7--5--2-5--2--7--7--7--7--5--5--5-5--2-|
A|-3--0--3--0--5--5--5--5--3--0-3--0--5--5--5--5--3--3--3-3--0-|
E|-------------------------------------------------------------|

Song order

Intro
Main riff x8
Dividing part
Main riff x4
Dividing part
Pre chorus x3
Dividing part
Main chorus + then
Main Riff x8
Dividing part
Main Riff x4
Dividing part
Pre chorus x3
Dividing part
Main chorus + then
Interlude
Main riff (palm muted) x4
Main Riff x4
Dividing part
Pre chorus x3
Dividing part
Main chorus + then
Ending
Добавлено: 17.01.2014
Другие материалы по этой песне:
  • Аккорды и текст

Страница создана 14.09.2013
http://primanota.ru/offspring/original-pranckster-chords.htm
Привет, Гость.
Предлагаем пройти революционный курс по гитаре.
Подарок от PrimaNota.Ru, забирай!