PrimaNota.ru - самый крупный в мире бесплатный архив песенных текстов, аккордов, табулатур и нот


Offspring - Kids Arnt Alright - аккорды и текст, бас-таба, видео

Регистрация Запомнить меня
Войти через:  Facebook Google Twitter Vk Yandex Mail.ru

Offspring - Kids Arnt Alright - аккорды и текст, бас-таба, видео

Печатать
Просмотров: 302
Kids Arnt Alright
Offspring
pm - palm muting 
: - let ring 
b - bend 
/  - slide 

intro 
pm______________| |______________| |______________| 
------------------------------------------------- 
------------------------------------------------- 
|-6-6--6-6-5-5-5-6-6--6-6--6-6-5-5-5-6-6--6-6--6-6-5-5-5-6-6- 
|-8-8--8-8-8-8-8-8-8--4-4--4-4-4-4-4-4-4--6-6--6-6-6-6-6-6-6- 
------------------------------------------------- 
------------------------------------------------- 

-------------------------| 
-------------------------| 
-8-8-8-6-6-6-5-5-5-6-6-6-| 
-8-8-8-6-6-6-6-6-6-6-6-6-| 
-------------------------| 
-------------------------| 

guitar 2 (guitar 1 repeats last bar) 

----------| 
----------| 
6:--------| 
|-8:---4:---6:---6:---| 
|-8:---4:---4:---6:---| 
|-6:---2:--------4:---| 

riff 

----------------------------------------------------- 
----------------------------------------------------- 
----------------------------------------------------- 
----------------------------------------------------- 
|-1--1/3-3-3/4------3--4--4----------------3-3-3-3-4-4-4-4-6-6-6- 
---2--2---------4-4-4-4-6-6-6-6---------------------- 

-------------------------| 
-------------------------| 
-------------------------| 
-------------------------| 
-4-4-4-4-3-3-3-3-4-4-4-4-| 
-------------------------| 

verse 
pm______| |_______| |_______| |_______| |_______| |_______| 
-------------------------------------------------------------- 
-------------------------------------------------------------- 
--3/6-6-6-6-6-6-----------------------------------3/6-6-6-6-6- 
|-84-4-4-4-4-3/6-6-6-6-6-6-6-6-6-6-6-6/8-8-8-8-8-84-4-4-4-4-3/6-6-6-6-6- 
|-84-4-4-4-4-1/4-4-4-4-4-4-6-6-6-6-6-6/8-8-8-8-8-84-4-4-4-4-1/4-4-4-4-4- 
|-62-2-2-2-2---------------4-4-4-4-4-4/6-6-6-6-6-62-2-2-2-2------------- 

|_______| 
-------------| 
-------------| 
-6-----------| 
-6-6-6-6-6-6-| 
-4-6-6-6-6-6-| 
---4-4-4-4-4-| 

chorus 

--------------------------------------------------------------| 
--------------------------------------------------------------| 
------11-11-11-11-11-11-11-11-6-6-6-6-6-6-6-6-----------------| 
|-8-8-8-8-8-8-8-8-11-11-11-11-11-11-11-11-6-6-6-6-6-6-6-6-6-6-6-6-6-6-6-6-| 
|-8-8-8-8-8-8-8-8--9--9--9--9--9--9--9--9-4-4-4-4-4-4-4-4-6-6-6-6-6-6-6-6-| 
|-6-6-6-6-6-6-6-6-----------------------------------------4-4-4-4-4-4-4-4-| 

solo 

-----------------------4b--6b---9b--11b--13b--16------------- 
-----------------------7b--9b--12b--14b--16b-----16b--14--16- 
------------------------------------------------------------- 
------------------------------------------------------------- 
|-81--1/3--3--3/4--4--46--6-/8-8--------------------------------------- 
------------------------------------------------------------- 

------13b--13b--13--13b--13---------------------------------------9-9--- 
-16b--16b--16b--16--16b--16--16b--14----14-16-14----149------9-9-----9- 
-------------------------------------15----------15------11b------------ 
------------------------------------------------------------------------ 
------------------------------------------------------------------------ 
------------------------------------------------------------------------ 

-------------------------------------------| 
--------------------14-14-16b-16-16-14-16b-| 
-10-11/13--13-13-13------------------------| 
-------------------------------------------| 
-------------------------------------------| 
-------------------------------------------| 

outro 

-------------------------| 
|-11-9-11-9-11-9-11-9-11-9-11-9-11-9-| 
-------------------------| 
-------------------------| 
-------------------------| 
-------------------------| 
Добавлено: 16.03.2012
Другие материалы по этой песне:
  • Аккорды и текст

Страница создана 16.03.2012
http://primanota.ru/offspring/kids-arnt-alright-chords.htm
Привет, Гость.
Предлагаем пройти революционный курс по гитаре.
Подарок от PrimaNota.Ru, забирай!