PrimaNota.ru - самый крупный в мире бесплатный архив песенных текстов, аккордов, табулатур и нот


Offspring - Keep Em Seperated - аккорды и текст, видео

Регистрация Запомнить меня
Войти через:  Facebook Google Twitter Vk Yandex Mail.ru

Offspring - Keep Em Seperated - аккорды и текст, видео

Печатать
Просмотров: 268
Keep Em Seperated
Offspring
Offspring
Keep 'Em Seperated

tabbed by Chad Kimsey

this is a rather simple song to play, at the very beginning, just hit
a few chimes along the 12th fret, then start with this:

Here are the symbols i used:
\ slide
b bend
r release
~ vibrato

INTRO Riff                         PRE VERSE
keep em seperated...  repeat 8x    4x
e|-------------------------------|-----------------------------------|
b|-------------------------------|-----------------------------------|
g|----------------------7--------|-----------------------------------|
d|-------------------9--7--4\7---|--------2-3br-2--------------------|
a|-------------------9--5--4\7---|--2h5-5---------5-2br~-2-3-2-------|
E|-------------------7-----2\5---|-----------------------------------|

                                  VERSE
                                  like the latest fashion...
  end 4th like this               pm...through verse......
e|--------------------------------|--------------------------------|
b|--------------------------------|--------------------------------|
g|--------------------------------|-----------------------7--------|
d|--------2-3br-2-----------------|-9-----4-----7---9-----7---4\7--|
a|--2h5-5---------5-2-------------|-9-----4-----7---9-----5---4\7--|
E|--------------------------------|-7-x-x-2-x-x-5-x-7-x-x---x-2\5--|

PRE CHORUS

e|--------------------------------|--------------------------------|
b|--------------------------------|--------------------------------|
g|---9-x-x-12-x-x-11-x------------|---9-x-x-12-x-x-11-x------------|
d|---9-x-x-12-x-x-11-x-9----------|---9-x-x-12-x-x-11-x-9----------|
a|---7-x-x-10-x-x-9--x-9----------|---7-x-x-10-x-x-9--x-9----------|
E|---------------------7----------|---------------------7----------|



                                   they're gonna patch it up.....
e|--------------------------------|--------------------------------|
b|--------------------------------|--------------------------------|
g|-----------------------7--------|-11-----------------------------|
d|-9-----4-----7---9-----7---4\7--|-11-----------------------------|
a|-9-----4-----7---9-----5---4\7--|-9------------------------------|
E|-7-x-x-2-x-x-5-x-7-x-x---x-2\5--|--------------------------------|


CHORUS
same as intro until after second pause, it goes like this
                                   under 18....
e|--------------------------------|--------------------------------|
b|--------------------------------|--------------------------------|
g|----7----------7----------------|-9~~---5~~----------------------|
d|-9--7--4\7--9--7--4\7-----------|-9~~---5~~----------------------|
a|-9--5--4\7--9--5--4\7-----------|-7~~---3~~----------------------|
E|-7-----2\5--7-----2\5-----------|--------------------------------|


hey....       pm------>           pause
e|--------------------------------|--------------------------------|
b|--------------------------------|--------------------------------|
g|----7-------------------7-------|--------------------------------|
d|-9--7---4\7-4-4-4-4-7-9-7-4\7-9-|--------------------------------|
a|-9--5---4\7-4-4-4-4-7-9-5-4\7-9-|--------------------------------|
E|-7------2\5-2-2-2-2-5-7---2\5-7-|--------------------------------|


go back to the pre verse riff and repeat tab
any questions or comments are welcome at:
fa18hornet_18@2hotmail.com

if you see anything that is not right or you could tab better, let me know
     
Добавлено: 28.09.2013
Другие материалы по этой песне:
  • Аккорды и текст

Страница создана 23.08.2013
http://primanota.ru/offspring/keep-em-seperated-chords.htm
Привет, Гость.
Предлагаем пройти революционный курс по гитаре.
Подарок от PrimaNota.Ru, забирай!