PrimaNota.ru - самый крупный в мире бесплатный архив песенных текстов, аккордов, табулатур и нот


Offspring - Elders - текст песни, таба, бас-таба, видео

Регистрация Запомнить меня
Войти через:  Facebook Google Twitter Vk Yandex Mail.ru

Offspring - Elders - текст песни, таба, бас-таба, видео

Печатать
Просмотров: 399
ELDERS 
Great song not too hard and nobody has done it so here it is!
Enjoy!!!


# intro #   X4                                                         
E-----------------------------------------------------|                
B-----------------------------------------------------|                
G--10--10-10-10-10-10-10-10-10-10-10---6---6--8---8---|                
D--10--10-10-10-10-10-10-10-10-10-10---6-6-6--8-8-8---|                
A---8---8--8--8--8--8--8--8--8--8--8---4-6-4--6-8-6---|                
E----------------------------------------4------6-----|                
       \________mute_______________/

# verse #   X 4
E-------------------------|
B-------------------------|
G--10---6---6--8---8------|
D--10---6-6-6--8-8-8------|
A---8---4-6-4--6-8-6------|
E---------4------6--------|

# chorus #    X 2
E------------------------------------------------------------|
B------------------------------------------------------------|
G----------6--5--------------6--5--3--3-3-3-3--6--5--6---8---|
D-3-3-3-3--6--5--6--6-6-6-6--6--5--3--3-3-3-3--6--5--6---8---|
A-3-3-3-3--4--3--6--6-6-6-6--4--3--1--1-1-1-1--4--3--4---6---|
E-1-1-1-1--------4--4-4-4-4----------------------------------|
   \mute/           \mute  /           \mute/

Intro2 #   X 2
E-------------------------------------------|                          
B-------------------------------------------|                          
G---3--3-3-3-3-3-3-3-3-3-3---6---6--8---8---|                                          
D---3--3-3-3-3-3-3-3-3-3-3---6-6-6--8-8-8---|                          
A---1--1-1-1-1-1-1-1-1-1-1---4-6-4--6-8-6---|
E------------------------------4------6-----|
       \________mute_____/
Then play verse and chorus

# solo #    v = vibrato    b = bend
E-------15------------------------------------------------->
B13------14---14v--13------------17b-17b-17b-17b-17b-17b--->
G--13-13v--15-------13----13v------------------------------>
D---15-----------------15---------------------------------->
A---------------------------------------------------------->
E---------------------------------------------------------->

E-15-13------13--15-13-----13------------------------------|
B------14-14--14------14-14--14-13-17b-17b-17b-17b-17b-17b-|
G----------------------------------------------------------|
D----------------------------------------------------------|
A----------------------------------------------------------|
E----------------------------------------------------------|

# bridge #
E-----------------------------------|
B-----------------------------------|
G-------------------6-5-6---8--10---|
D---8-6-8---8-6-8---6-5-6---8--10---|
A---8-6-8---8-6-8---4-3-4---6---8---|
E---6-4-6---6-4-6-------------------|
Then play chorus and finally verse and you got it!
I really like this song!
Добавлено: 07.05.2012
Другие материалы по этой песне:

Страница создана 24.02.2012
http://primanota.ru/offspring/elders-chords.htm
Привет, Гость.
Предлагаем пройти революционный курс по гитаре.
Подарок от PrimaNota.Ru, забирай!