PrimaNota.ru - самый крупный в мире бесплатный архив песенных текстов, аккордов, табулатур и нот


Officer Negative - Jchc - текст песни, таба, бас-таба, видео

Регистрация Запомнить меня
Войти через:  Facebook Google Twitter Vk Yandex Mail.ru

Officer Negative - Jchc - текст песни, таба, бас-таба, видео

Печатать
Просмотров: 154
Уроки эстрадного вокала в Санкт-Петербурге
		   ================================================================================
                   ==JCHC by Officer Negative==
================================================================================
                      tabbed by Travis Garrecht (Youth in Submission)



This is the main riff listen to the cd to get the timing down                                      
-------------------------------------------|
-------------------------------------------|
-------------------------------------------|
-7--7--7---------------------10--10--9--9--|
-5--5--5--7--7--7---8--8--8--8---8---7--7--|
----------5--5--5---6--6--6----------------|
                                                                                


           This is the chorus riff                           
-----------------------------------------------|
-----------------------------------------------|
-----------------------------------------------|
7--7--7--7--10--10--10--10--9--9--9--9---------
5--5--5--5--8---8---8---8---7--7--7--7--10-10--|
----------------------------------------8--8---|                                                                          


                                                                                
    


   heres the solo and thats it.......                         
---------------------------------------------------|----
---------------------------------------------------|----
-7--7--7--7--10--10--9--7--5--5--5--5--------------|----
---------------------------------------7--7--7--7--|----
---------------------------------------------------|----
---------------------------------------------------|----
                                                                                


                                                                                
-------------------------------------------------------------|
-----------------------------11--11--11--11--10--10--10--10--|
---7--7--7--7--10--10--9--7----------------------------------|
-------------------------------------------------------------|
-------------------------------------------------------------|
-------------------------------------------------------------|                                                                             




Hey what's up? Learned this after playing a few shows with Officer Negative
so learn it and play it for your school talent show, cause as we know, 
everybody loves old school christian punk rock:-) feel free to email 
youth in submission at Y-I-S@juno.com and ask us any questions if you 
have them, thanks and godbless, oh yeah, go see Officer Negative if you 
can, its a rad show, and odds are we will be there      
Добавлено: 02.10.2013
Другие материалы по этой песне:
  • Аккорды и текст

Страница создана 03.03.2012
http://primanota.ru/officer-negative/jchc-chords.htm
Привет, Гость.
Предлагаем пройти революционный курс по гитаре.
Подарок от PrimaNota.Ru, забирай!