PrimaNota.ru - самый крупный в мире бесплатный архив песенных текстов, аккордов, табулатур и нот


Off By One - Try - текст песни, таба, видео

Регистрация Запомнить меня
Войти через:  Facebook Google Twitter Vk Yandex Mail.ru

Off By One - Try - текст песни, таба, видео

Печатать
Просмотров: 138
----------------------------------------------------------------------
                             TRY - OfF bY OnE
----------------------------------------------------------------------
Tabbed by:rara
Email:fo0l_u@hotmail.com

Intro 
e|-------------------------------------------------------------------|
B|---------1---------------------------------------------------------|
G|----1--------1------------5----------------6-----------------------|
D|--------------------6---------6------6---------6-6-6/8-8-8-6-6-5h6-|
A|---------------------------------4-4---4-4---4---------------------|
E|-1-1--1-1--1----4-4---4-4---4--------------------------------------|
 Pm...............................................   
e|-------------------------------------------------------------------|
B|-----------1-------------------------------------------------------|
G|-----1---------1-----------5----------------6----------------------|
D|---------------------6---------6------6---------6-6-6/8-8-8-6-6-5h6|
A|----------------------------------4-4---4-4---4--------------------|
E|-1-1---1-1---1---4-4---4-4---4-------------------------------------|
 Pm................................................
e|-------------------------------------------------------------------|
B|-----------1-------------------------------------------------------|
G|-----1---------1-----------5----------------6----------------------|
D|---------------------6---------6------6---------6-6-6/8-8-8-6-6-5h6|
A|----------------------------------4-4---4-4---4--------------------|
E|-1-1---1-1---1---4-4---4-4---4-------------------------------------|
 Pm................................................
e|-------------------------------------------------------------------|
B|-------------------------------------------------------------------|
G|-------------------------------------------------------------------|
D|-6/8-8-8-6-6-5h6-6/8-8-8-6-6-5h6/10-10-10-10-8-8-8-8-6-6-6-6-5-5-5-|
A|-------------------------------------------------------------------|
E|-------------------------------------------------------------------|

e|-------------------------------------------------------------------|
B|-------------------------------------------------------------------|
G|-------------------------------------------------------------------|
D|-5h6---10---10---10---10---6---6---6---6---8---8---8---8---5---5-5h6
A|-----8----8----8----8----4---4---4---4---6---6---6---6---3---3-----|
E|-------------------------------------------------------------------|

e|-------------------------------------------------------------------|
B|-------------------------------------------------------------------|
G|-------------------------------------------------------------------|
D|-5-1010---66---88---55--5-6-5--------------------------------------|
A|---8-8----44---66---33--3------------------------------------------|
E|-------------------------------------------------------------------|
Verse
Guitar 1
e|--------------------------------------------------------------|
B|--------------------------------------------------------------|
G|-----------------------8888-8888-5555-5555--------------------| x4
D|-3333-3333--6666-6666--8888-8888-5555-5555--------------------|
A|-3333-3333--6666-6666--6666-6666—3333-3333--------------------|
E|-1111-1111--4444-4444-----------------------------------------|
 Pm.............................................................




Verse
Guitar 2
e|---------------------------------------------------------------|
B|---------------------------------------------------------------|
G|---------------------------------------------------------------|
D|-10101010--10101010--6666-6666--4444-4444-4444-4444------------| x4
A|-8-8-8-8---8-8-8-8---4444-4444--6666-6666-6666-6666------------|
E|---------------------------------------------------------------|
Pm...................................................
Chorus 
e|---------------------------------------------------------------|
B|---------------------------------------------------------------|
G|-10101010--10101010--6666-6666-4444-4444-4444-4444-------------|
D|-8-8-8-8---8-8-8-8---4444-4444-6666-6666-6666-6666-------------| x3
A|---------------------------------------------------------------|
E|---------------------------------------------------------------|


| /  slide up
| \  slide down
| h  hammer-on
| p  pull-off
| ~  vibrato
| +  harmonic
| x  Mute note
Добавлено: 23.03.2012
Другие материалы по этой песне:
  • Аккорды и текст

Страница создана 23.03.2012
http://primanota.ru/off-by-one/try-chords.htm
Привет, Гость.
Предлагаем пройти революционный курс по гитаре.
Подарок от PrimaNota.Ru, забирай!