PrimaNota.ru - самый крупный в мире бесплатный архив песенных текстов, аккордов, табулатур и нот


Of Montreal - She's A Rejector - текст песни, таба, бас-таба, видео

Регистрация Запомнить меня
Войти через:  Facebook Google Twitter Vk Yandex Mail.ru

Of Montreal - She's A Rejector - текст песни, таба, бас-таба, видео

Печатать
Просмотров: 127
Уроки эстрадного вокала в Санкт-Петербурге
Song-She's A Rejector
Artist-Of Montreal
Album-Hissing Fauna, Are You the Destroyer?(2007 Polyvinyl Records)
Transcribed by: Isaac Nicholas Coquelicot-Leary

*Standard Tuning*

_Basic Key_
 /  slide up/strum down
 \  slide down/strum up
 h  hammer-on
 p  pull-off
 ~  vibrato
 +  harmonic
 .  Mute note
 *  play is optional

*Intro*

Guitar 2
E|----------------------------------------------|
B|----------------------------------------------|
G|3-3----3-3---6-6------------------------------|
D|3-3----3-3---6-6--6-6----6-6---4-4------------|
A|1-1----1-1---4-4--6-6----6-6---4-4------------|
E|------------------4-4----4-4---2-2------------|

E|-----------------------------------------------|
B|-----------------------------------------------|
G|-6-6-------------------------------------------|
D|-6-6--6-6---6-6---4-4--------------------------|
A|-4-4--6-6---6-6---4-4--------------------------|
E|------4-4---4-4---2-2--------------------------|

*Verse*
(My, my you busted me like a robocop...)
(My, my this demon heart of the master's head...)

Guitar 1
E|-----------------------------------------------|
B|-----------------------------------------------|
G|--------7-7-7------------7-7-7-----------------|
D|--------7-7-7------------7-7-7-----------------|
A|---5-5--5-5-5-------5-5--5-5-5-----------------|
E|5-5-------------5-5----------------------------|
                                                   
Guitar 2                                          
E|--------5-5-5------------5-5-5-----------------|
B|--------6-6-6------------6-6-6-----------------|
G|--------7-7-7------------7-7-7-----------------|
D|--------7-7-7------------7-7-7-----------------|
A|---5-5--5-5-5-------5-5--5-5-5-----------------|
E|5-5-----5-5-5----5-5-----5-5-5-----------------|
  * ** *           * ** *
Guitar 1
E|-----------------------------------------------|
B|-----------------------------------------------|
G|6-6-5-5--5-5-5---5-5-3-3--3-3-3----------------|
D|5-5-5-5--5-5-5---3-3-3-3--3-3-3----------------|
A|3-3-3-3--3-3-3---3-3-1-1--1-1-1----------------|
E|-----------------------------------------------|
                                                   
Guitar 2                                           
E|---------3-3-3------------1-1-1----------------|
B|---------5-5-5------------3-3-3----------------|
G|---------5-5-5------------3-3-3----------------|
D|3-3------5-5-5------------3-3-3----------------|
A|----3-3--3-3-3---3-3-1-1--1-1-1----------------|
E|---------3-3-3------------1-1-1----------------|
  * * * *          * * * *
*Chorus*
(Oh, no! She's a rejector! I must protect myself!)

Guitar 1
E|-8--------5---------5--------------------------|
B|-9--------6---------5--------------------------|
G|10--------7---------5--------------------------|
D|10--------7---------7--------------------------|
A|-8--------5---------7--------------------------|
E|-8--------5---------5--------------------------|
   ////////  ////////  ////////                   
Guitar 2                                          
E|-----------------------------------------------|
B|-----------------------------------------------|
G|-----------------------------------------------|
D|-----------------------------------------------|
A|-----------------------------------------------|
E|-----------------------------------------------|

(There's the girl that left me bitter..)

Guitar 1
E|-----------------------------------------------|
B|-----------------------------------------------|
G|-----------------------------------------------|
D|-----------------------------------------------|
A|-----------------3-3-3-3-3-3-3-3---------------|
E|5-5-5-5-5-5-5-5--------------------------------|
                                                 
Guitar 2                                         
E|-----------------------------------------------|
B|-----------------------------------------------|
G|-----------------------------------------------|
D|-----------------------------------------------|
A|-----------------------------------------------| 
E|-----------------------------------------------|

(...pay some other girl to just walk
up to her and hit her...)

Guitar 1
E|-----------------------------------------------|
B|-----------------------------------------------|
G|-----------------------------------------------|
D|-----------------------------------------------|
A|-----------------------------------------------|
E|1-1-1-1-1-1-1-1-1-1-1-1-1--0-0-0---------------|
                                                 
Guitar 2                                         
E|-----------------------------------------------|
B|-----------------------------------------------|
G|-----------------------------------------------|
D|-----------------------------------------------|
A|-----------------------------------------------|
E|-----------------------------------------------|

(but I can't, I can't, I can't)

Guitar 1
E|-5---------------------------------------------|
B|-6---------------------------------------------|
G|-7---------------------------------------------|
D|-7---------------------------------------------|
A|-5---------------------------------------------|
E|-5---------------------------------------------|
    ////////                                     
Guitar 2                                         
E|-5---------------------------------------------|
B|-6---------------------------------------------|
G|-7---------------------------------------------|
D|-7---------------------------------------------|
A|-5---------------------------------------------|
E|-5---------------------------------------------|
    ////////

*Bridge*

Guitar 1
E|-7----------------7-7-7------------------------|
B|---7-------------------------------------------|
G|-----7-----------------------------------------|
D|-----------------------------------------------|
A|-----------------------------------------------|
E|-----------------------------------------------|
   + + +            + + +                        
Guitar 2                                         
E|-----------------------------------------------|
B|-----------------------------------------------|
G|-7-7------------------7------------------------|
D|-7-7------------5-----7------------------------|
A|-5-5------------5-----5------------------------|
E|----------------3------------------------------|

Guitar 1
E|------------------7-7-7------------------------|
B|-7---------------------------------------------|
G|---7-------------------------------------------|
D|-----7-----------------------------------------|
A|-----------------------------------------------|
E|-----------------------------------------------|
   + + +             + + +                       
Guitar 2                                         
E|-----------------------------------------------|
B|-----------------------------------------------|
G|-5---7--------7-----------5---7----------------|
D|-5-5-7-----5--7-----------5-5-7----------------|
A|-3-5-5-----5--5-----------3-5-5----------------|
E|---3-------3----------------3------------------|

Guitar 1
E|------------------7-7-7------------------------|
B|-7---------------------------------------------|
G|---7-------------------------------------------|
D|-----7-----------------------------------------|
A|-----------------------------------------------|
E|-----------------------------------------------|
   + + +             + + +                       
Guitar 2                                         E|-----------------------------------------------|
B|-----------------------------------------------|
G|-----7-------5---7-----------------------------|
D|-5---7-------5-5-7-----------------------------|
A|-5---5-------3-5-5-----------------------------|
E|-3-------------3-------------------------------|

*Song Order*
---------------------------- /
Intro----------------------- /x1
Verse----------------------- /x1
Chorus---------------------- /x1
Verse----------------------- /x1
Bridge---------------------- /x1
Chorus---------------------- /x1
Verse-x Indefinitely(Fades Out)

Lyrics
-------
My, my
You busted me like a robocop
Strike me with your riding crop
I'm forever going celibate, tomorrow, tonight
like success knows no shame

Oh, no
She's a rejector
I must protect myself
There's the girl that left me bitter
Want to pay some other girl to just walk up to
her and hit her
But I can't, i can't, I can't

My, my this demon heart of the master's head
Crush me
why I don't understand
And I know you're not her 'cause the girl of my
dreams is probably god
still i want you

Oh, no
She's a rejector
I must protect myself
There's the girl that left me bitter
Want to pay some other girl to just walk up to
her and hit her
But I can't, I can't, I can't

I can't just hit her!
I want to but I can't, I can't, I can't
NO!
I can't, I can't, I can't
--------------
NOTES
--------------------------------------
Off of Of Montreal's latest release: Hissing Fauna, Are You the Destroyer?, this song
three guitars playing. Kevin plays a rhythm part along with Dottie and Jamey plays the
parts are basically just broken up parts of the chords played on three guitars to make 
easier for Kevin to sing while playing. For the sake of ease of play, I combined two of the
basic parts into one. Enjoy..
-------------------------------------
Any questions, suggestions and/or comments can be forwarded to acontrolgroup@yahoo.com

_Kevin Barnes, the Sunlandic Twin, will live forever...._
Добавлено: 02.11.2013
Другие материалы по этой песне:

Страница создана 05.05.2012
http://primanota.ru/of-montreal/shes-a-rejector-chords.htm
Привет, Гость.
Предлагаем пройти революционный курс по гитаре.
Подарок от PrimaNota.Ru, забирай!