PrimaNota.ru - самый крупный в мире бесплатный архив песенных текстов, аккордов, табулатур и нот


Of Montreal - Partys Crashing Me - бас-таба, видео

Регистрация Запомнить меня
Войти через:  Facebook Google Twitter Vk Yandex Mail.ru

Of Montreal - Partys Crashing Me - бас-таба, видео

Печатать
Просмотров: 57
-----------------------------------------------------------------------------
		  The Party's Crashing Me - Of Montreal
-----------------------------------------------------------------------------
Tabbed By : bp
e-mail: asuitablename@hotmail.com

Tuning: Standard EADG

This song is wicked fun to play. Of Montreals bassist is great.
There are a few small variations I left out because they're not too noticable. If you 
to hear them... good for you... write a better tab :)

#PART 1#
G|---------------------------------------------------------------------------|
D|-----------------------------------------------------------------8---------|
A|---------3333333-8888888---------10101010101010-3333333-|---58-|---58------|
E|-3333333-----------------6666666------------------------|-66---|--6--------|
                                      (tens)                (x3)
#PART 2#
G|----------------------------------------------------------10-10------------|
D|-------8-8-10-10-12-12---------------10-10------7-7-10-10------------------|
A|-10-10---------------------7-7-10-10--------8-8----------------------------|
E|-----------------------8-8-------------------------------------------------|

G|-----------------------------------------------------|------|--------------|
D|-------------8---------8-8-10-10-12------------------|------|--8-----------|
A|-----5-5-8-8--8--10-10------------------10-10-7-7----|---58-|----58--------|
E|-6-6--------------------------------8-8-----------8-8|-66---|---6----------|
                                                         (x3)

#PART 3#
G|-----8-7-----8-7-----8-7/-12-10--------------------------------------------|
D|-5-5-----5-5-----5-5------------12-----------------------------------------|
A|---------------------------------------------------------------------------|
E|---------------------------------------------------------------------------|

#PART 4#
G|---------------------------------------------------------------------------|
D|---------10----12-12-10----------------------------------------------------|
A|----9-12----12----------12-10----10-12-------------------------------------|
E|-10---------------------------13-------------------------------------------|

G|-------------------10-12-10----17------------------------------------------|
D|---------10----12-------------------19-------------------------------------|
A|----9-12----12-------------------------------------------------------------|
E|-10------------------------------------------------------------------------|

G|--------------------|-----------------\----------------------|-------------|
D|---------10----12---|------7-10-7-----\-12-10----------10----|-------------|
A|----9-12----12------|-88-10-------10--\-------12-10-12----12-|-------------|
E|-10-----------------|-----------------\----------------------|-------------|
                        he switches between these two throught
                        the song. but plays the first one the
                        most

#PART 5#
G|--10-10-9-9-7-7------------------------------------------------------------|
D|----------------10-10-8-8-7-7----------------------------------------------|
A|------------------------------10-10----------------------------------------|
E|------------------------------------8\-------------------------------------|
                                  slide into the next part

#PART 6#
G|--10-10-9-9-7-7------------------------------------------------------------|
D|----------------10-10-8-8-7-7----------------------------------------------|
A|------------------------------10-10----------------------------------------|
E|------------------------------------8-8------------------------------------|

G|--------------------12-12-10-10-------10-----------------------------------|
D|------7-7-10-10-7-7-------------12-12---12---------------------------------|
A|--8-8----------------------------------------------------------------------|
E|---------------------------------------------------------------------------|

#PART 7#
G|------------------------------------|------|-------------------------------|
D|------------------------------------|------|-8-----------------------------|
A|-----------8888-------10101010-3333-|---58-|---58--------------------------|
E|-3333\8888------6666----------------|-66---|--6----------------------------|
                                       (x3)

#PART 8#
G|-----8-7-----8-7-----8-7-----8-7-------------------------------------------|
D|-5-5-----5-5-----5-5-----5-5-----------------------------------------------|
A|---------------------------------------------------------------------------|
E|---------------------------------------------------------------------------|

G|---1010--1010--------88----------------------------------------------------|
D|---------------1010-----5-------5------------------------------------------|
A|-88----88------------------------------------------------------------------|
E|-------------88----88------------------------------------------------------|


ORDER
---------
PART 1
PART 2
PART 3
PART 4
PART 5
PART 4
PART 6
PART 2 (x2)
PART 3
PART 4
PART 5
PART 4
PART 6
PART 2 (x2)
PART 3
PART 4
PART 5
PART 4
PART 6
PART 7
PART 2 (x3)
PART 8


| /  slide up
| \  slide down
| h  hammer-on
| p  pull-off
| ~  vibrato
| +  harmonic
| x  Mute note
=============================================================================
Добавлено: 28.06.2013
Другие материалы по этой песне:
  • Аккорды и текст

Страница создана 28.06.2013
http://primanota.ru/of-montreal/partys-crashing-me-chords.htm
Привет, Гость.
Предлагаем пройти революционный курс по гитаре.
Подарок от PrimaNota.Ru, забирай!