PrimaNota.ru - самый крупный в мире бесплатный архив песенных текстов, аккордов, табулатур и нот


Of Montreal - Dirty Dustin Hoffman Needs A Bath - аккорды и текст, видео

Регистрация Запомнить меня
Войти через:  Facebook Google Twitter Vk Yandex Mail.ru

Of Montreal - Dirty Dustin Hoffman Needs A Bath - аккорды и текст, видео

Печатать
Просмотров: 57
Dirty Dustin Hoffman Needs A Bath
Of Montreal
-------------------------------------------------------------------------------
              DIRTY DUSTIN HOFFMAN NEEDS A BATH - of Montreal
-------------------------------------------------------------------------------
Tabbed by: cody 
E-mail:cody.mcginnis@gmail.com

Tuning: Sharp Standard (listen to the intro and match the corresponding notes to his tuning)

Intro
e|-----757575---5--------5-757575-10p7-10p7-10p7-12-14~~~~-------------------|
B|-3535------353-753-753--------------7----7----7----------------------------|
G|------------------4--------------------------------------------------------|
D|---------------------------------------------------------------------------|
A|---------------------------------------------------------------------------|
E|---------------------------------------------------------------------------|


F#
Wide-eyed optimist
                        D
Looking for a sarcastic Sagittarius
G
Airplanes in your window
Em              B          C         G
I don't want to break your confidence
F#
Spying for a looksy
                          D
That blow mouth wrestling with the sound of happiness
     B          A           F#
I'll gladly not harbor your boats
               G                   A
Know that in a house of resentment nothing grows
B       G      D            A        G
 This unlikely pair, this unlikeable prune
It's a cream puff wedding of two
B                   A*
Underachievers and nancy boys are bound

Waiting on the weather
                D
In the sleeping house 
               G           B          E              D
Where we're at arms length and at least two words apart

[intro lick]

F#
Catalog reaction
Pleasant inconsistancies
  D                          Bm      
A salad on your toes makes a better breakfast
  Em              C
I know where your sweets and scenery sleep
F#
Those moving words dressing up
                   D
I've a pretty good idea who I'm standing on
     B          A           F#             G         A
I'll gladly not borrow your voice, maybe a phrase or two
B       G      D            A        G
 This unlikely pair, this unlikeable prune
It's a cream puff wedding of two
B                   A*
Underachievers and nancy boys are bound
*
Waiting on the weather to settle down


*
e|--------------10-10-10-10-10-10-10-10--------------------------------------|
B|-22222222222229--9--9--9--9--9--9--9---------------------------------------|
G|-22222333333339--9--9--9--9--9--9--9---------------------------------------|
D|-22222222222229--9--9--9--9--9--9--9---------------------------------------|
A|---------------------------------------------------------------------------|
E|---------------------------------------------------------------------------|
Добавлено: 31.10.2013
Другие материалы по этой песне:
  • Аккорды и текст

Страница создана 31.10.2013
http://primanota.ru/of-montreal/dirty-dustin-hoffman-needs-a-bath-chords.htm
Привет, Гость.
Предлагаем пройти революционный курс по гитаре.
Подарок от PrimaNota.Ru, забирай!