PrimaNota.ru - самый крупный в мире бесплатный архив песенных текстов, аккордов, табулатур и нот


Of Monsters And Men - Skeletons - аккорды и текст, видео

Регистрация Запомнить меня
Войти через:  Facebook Google Twitter Vk Yandex Mail.ru

Of Monsters And Men - Skeletons - аккорды и текст, видео

Печатать
Просмотров: 818
Skeletons
Of Monsters And Men
-------------------------------------------------------------------
Skeletons - Of Monsters and Men
-------------------------------------------------------------------

Tab by: Jaxton Winder
Song originally by: Yeah Yeah Yeah's
Cover and exact version by: Of Monsters and Men

Intro and Instrumental

e|----------------------------------|
B|--------------1-1-3-3-3-3-1-1-1-1-|
G|---------2-2----------------------|
D|-3-3-3----------------------------| Riff 1
A|----------------------------------|
E|----------------------------------|

e|----------------------------------|
B|----------------------------------|
G|-2-2-2-2-2-2-2-2-0-0-0-0-2-2-2-2--|
D|----------------------------------| Riff 2
A|----------------------------------|
E|----------------------------------|

e|----------------------------------|
B|-------------------------1-1-1-1--|
G|-2-2-2-2-2-2-2-2-0-0-0-0----------|
D|----------------------------------| Riff 3
A|----------------------------------|
E|----------------------------------|

Riff 1 - Riff 2 - Riff 1 - Riff 3



G       C         Em
....... Love my name
C           G
Love left dry
C            Em
Frost or flame
C       G
Skeleton me
C      Em
Fall asleep
C         G
Spin the sky
C         Em
Skeleton me
C            G
Love, don't cry


C            Em
Soon comes rain
C           G
Dry your eyes
C           Em
Frost or flame
C         G
Skeleton me
C         Em
Fall asleep
C         G
Spin the sky
C         Em
Skeleton me
C            G
Love, don't cry

(Insturmental. Play Riffs twice.)

C            Em
Love, don't cry
C            G
Love, don't cry
C            Em
Love, don't cry
C         G
Skeleton me
C             Em
Love, don't cry
C             G
Love, don't cry
C             Em
Love, don't cry
C         G
Skeleton me
(Fade)

To sound more like the song, transpose intro into notes and play on piano.

Please correct any mistakes. This is my first tab, and I would enjoy to see some
constructive criticism. Thank you! :)
Добавлено: 05.09.2013
Другие материалы по этой песне:
  • Аккорды и текст

Страница создана 04.09.2013
http://primanota.ru/of-monsters-and-men/skeletons-chords.htm
Привет, Гость.
Предлагаем пройти революционный курс по гитаре.
Подарок от PrimaNota.Ru, забирай!