PrimaNota.ru - самый крупный в мире бесплатный архив песенных текстов, аккордов, табулатур и нот


Of Mice And Men - This Ones For You - таба, видео

Регистрация Запомнить меня
Войти через:  Facebook Google Twitter Vk Yandex Mail.ru

Of Mice And Men - This Ones For You - таба, видео

Печатать
Просмотров: 119
-------------------------------------------------------------------------------
                             THIS ONE'S FOR YOU – Of Mice & Men
-------------------------------------------------------------------------------
 INTRO
 Gtr. 1      (4x)
|----------|---------------------------------------------------------------|
|----------|-10h13h10-----------------------10h13h10-----------------------|
|-10-------|---------10h12h10--999910101010---------10h12h10--999910121212-|
|----(64x)-|-----------------12-----------------------------12-------------|
|-8--------|---------------------------------------------------------------|
|----------|---------------------------------------------------------------|
                                                                           
 Gtr. 2               (4x)                                                  
|--------------------|--------------------------------------|                  
|--------------------|--------------------------------------|          
|--------------------|--------------------------------------|         
|--------------------|-3333333333333333-0000000000000000----|  
|-00000000-----------|-3333333333333333-0000000000000000----|
|-00000000-/////////-|-3333333333333333-0000000000000000----|
          Pick slide
 
VERSE (both gtrs)
|--------------------------------------------|
|-6------------------------------------------|
|---9~---------------------------------------|
|------8888888888888888-00000000-33333333----|
|------8888888888888888-00000000-33333333----| (2x)
|------8888888888888888-00000000-33333333----|
       .                .        .
|-------------------------------------------------------------|
|-------------------------------------------------------------|
|-------------------------------------------------------------|
|-------------------------------------------------------------|
|--------000000-0-0-0-0-0-0-000000-555555-5-5-5-8888888888----| (2x)
|-12////-000000-0-0-0-0-0-0-000000-555555-5-5-5-8888888888----|
         ......             ...... ......       ......

|------------------------------------------------------|
|------------------------------------------------------|
|------------------------------------------------------|
|------------------------------------------------------|
|-000000-0-0-0--000000-0-0-0--000000-0-0-0--1111111~---| (2x)
|-000000-0-0-0--000000-0-0-0--000000-0-0-0--1111111~---|
  ......        ......        ......        ......

 BREAKDOWN
|-13+---------------------------------|
|-13+---------------------------------|
|-13+---------------------------------|
|-------------------------XXXXXXXX----|
|-----00--00------00--00--XXXXXXXX----|
|-----111-111-1-1-111-11--XXXXXXXX----|
      ..  ..      ..  ..     

 CHORUS
 Gtr. 1

|-----------------------------------|
|--------10~------------------------|
|-----10--------10-9-9h10h9---------|
|-12~-------12~------------10-(2x)--|
|-----------------------------------|
|-----------------------------------|

 Gtr. 2
|----------------------------------|
|----------------------------------|
|----------------------------------|
|-8-------0-------3-------5--------|
|-8-------0-------3-------5--(2x)--|
|-8-------0-------3-------5--------|

 Gtr. 1
|--------------------------------------------------------|
|-10-13-10-----------------------------------------------|
|----------10-12-10-9-10-9-9brb--9h10h9----9h10h9--------|
|--------------------------------------12~-------12-10~--|
|--------------------------------------------------------| (2x)
|--------------------------------------------------------|

 Gtr. 1
|--------------------------------------------------------|
|--------------------------------------------------------|
|--------------------------------------------------------|
|-8~----------------3~-----------0~----------------------|
|-8~----------------3~-----------0~----------------------| (2x)
|-8~----------------3~-----------0~----------------------|

 BREAKDOWN
|------------------------------------------------|
|-11~---------11--11-------------11--11----------|
|-14~---------14--14-------------14--14----------|
|------------------------------------------------|
|--------00000--00---00000--00000--00---00000----| (2X)
|--------00000--00---00000--00000--00---00000----|
         .....  ..   .....  .....  ..   .....
|--------------|
|--------------|
|--------------|
|--------------|
|-00000-000----|
|-00000-000----|
  ..... ...

 Rate/comment please

************************************

| /   slide 
| h   hammer-on
| ~   vibrato
| +   harmonic
| .   Mute note
| brb Bend release bend

************************************

Добавлено: 01.05.2012
Другие материалы по этой песне:

Страница создана 01.05.2012
http://primanota.ru/of-mice-and-men/this-ones-for-you-chords.htm
Привет, Гость.
Предлагаем пройти революционный курс по гитаре.
Подарок от PrimaNota.Ru, забирай!