PrimaNota.ru - самый крупный в мире бесплатный архив песенных текстов, аккордов, табулатур и нот


Of Mice And Men - Public Service Announcement - таба, видео

Регистрация Запомнить меня
Войти через:  Facebook Google Twitter Vk Yandex Mail.ru

Of Mice And Men - Public Service Announcement - таба, видео

Печатать
Просмотров: 177
-------------------------------------------------------------------------------
               Public Service Announcement - Of Mice and Men
-------------------------------------------------------------------------------
Tabbed by: mdlarge13167
E-mail:mdlarge13167@ymail.com

Tuning: Drop A: A E A D G B

Intro
B|----------------------------------------------------------------------------------| x4  
G|----------------------------------------------------------------------------------|
D|----------------------------------------------------------------------------------|
A|----------------------------------------------------------------------------------|
E|---------8--------7----------6---------------------8---------7---------6----------|
A|--0-00-0----000-00----0-00-0----00000000----0-00-0----000-00----0-00-0----000-000-|
      *       ***         *       ********      *       ***         *       *** ***
Verse 1
B|------------------------------------------------------------------------------|\
G|-----10---------------------10------------------------------------------------| \
D|-----7----------------------7-------------------------------------------------|  \
A|------------------------------------------------------------------------------|   \
E|--0------0--3--6--5------0-----0---------5------------------------------------|    \
A|--0------0--3--6--5------0-----0---3-5-6---6-5-3-5----------------------------|     \
                                     * * *   * * * *                                   x2
B|------------------------------------------------------------------------------|     /
G|-----10-----------------------------------------------------------------------|    /
D|-----7------------------------------------------------------------------------|   /
A|------------------------------------------------------------------------------|  /
E|--0------0--3--6--5-------3-33-33---------------------------------------------| /
A|--0------0--3--6--5-------3-33-33---6b-6b-6b----------------------------------|/

Verse 2
B|----------------|\----------------------------------|\
G|-----10------10-|-\----------10---------------------| \
D|-----7-------7--|--\x3-------7----------------------|  \
A|----------------|--/--------------------------------|  / Repeat both x2
E|--0------0-0----|-/-------0------0------------------| /
A|--0------0-0----|/--------0------0--5555--3333------|/

Breakdown
B|-----------------------------------------------------------------------------|
G|---------------------------------------------------------10------------------|
D|---------------------------------------------------------7-------------------|
A|-----------------------------------------------------------------------------|
E|--0--000-0-00-00-0000-00-0--000-0000-00-0000-00-0--0--0-----0----------------|
A|--0--000-0-00-00-0000-00-0--000-0000-00-0000-00-0--0--0-----0----------------|

B|-----------------------------------------------------------------------------|
G|------------------------------10---------------------------------------------|
D|------------------------------7----------------------------------------------|
A|-----------------------------------------------------------------------------|
E|--000-0-00-0-00-0000-00-0--0------0--000-0000-00-0000-00-0-------------------|
A|--000-0-00-0-00-0000-00-0--0------0--000-0000-00-0000-00-0-------------------|

B|----------------------------------------------------------------------------------| x2  
G|----------------------------------------------------------------------------------|
D|----------------------------------------------------------------------------------|
A|----------------------------------------------------------------------------------|
E|---------8--------7----------6---------------------8---------7---------6----------|
A|--0-00-0----000-00----0-00-0----00000000----0-00-0----000-00----0-00-0----000-000-|
      *       ***         *       ********      *       ***         *       *** ***

B|------------------------------------------------------------------------------|\
G|-----10---------------------10------------------------------------------------| \
D|-----7----------------------7-------------------------------------------------|  \
A|------------------------------------------------------------------------------|   \
E|--0------0--3--6--5------0-----0---------5------------------------------------|    \
A|--0------0--3--6--5------0-----0---3-5-6---6-5-3-5----------------------------|     \
                                     * * *   * * * *                                   x2
B|------------------------------------------------------------------------------|     /
G|-----10-----------------------------------------------------------------------|    /
D|-----7------------------------------------------------------------------------|   /
A|------------------------------------------------------------------------------|  /
E|--0------0--3--6--5-------3-33-33---------------------------------------------| /
A|--0------0--3--6--5-------3-33-33---6b-6b-6b----------------------------------|/


Pre-Breakdown
B|----------------------------|\
G|-----10---------------------| \
D|-----7----------------------|  \ x2
A|----------------------------|  /
E|--0------0hold----0hold-----| /
A|--0------0hold----0hold-----|/

B|---------------------------------------------------------------------------|
G|--10--------10--------10--------10--------10--10--10-----------------------|
D|--7---------7---------7---------7---------7---7---7------------------------|
A|---------------------------------------------------------------------------|
E|---------------------------------------------------------------------------|
A|-----0000------0000------0000------0000------------------------------------|
       ****      ****      ****      ****

Breakdown 2
B|--------|------------------------------------------------------------| x2
G|--------|------------------------------------------------------------|
D|--------|------------------------------------------------------------|
A|--------|------------------------------------------------------------|
E|--1-0---|---1-0-1-3-1-0--4-3-1-3-1-0----1-0-1-3-1-0--4-3-1-3-1-0-----|
A|--1-0---|---1-0-1-3-1-0--4-3-1-3-1-0----1-0-1-3-1-0--4-3-1-3-1-0-----|

B|----------------------------------------------------------------------------------| x3  
G|----------------------------------------------------------------------------------|
D|----------------------------------------------------------------------------------|
A|----------------------------------------------------------------------------------|
E|---------8--------7----------6---------------------8---------7---------6----------|
A|--0-00-0----000-00----0-00-0----00000000----0-00-0----000-00----0-00-0----000-000-|
      *       ***         *       ********      *       ***         *       *** ***

Breakdown 3
B|----------------|\----------------------------------|\
G|-----10------10-|-\----------10---------------------| \
D|-----7-------7--|--\x3-------7----------------------|  \
A|----------------|--/--------------------------------|  / Repeat both x4
E|--0------0-0----|-/-------0------0------------------| /
A|--0------0-0----|/--------0------0--5555--3333------|/

Outro
B|--------|
G|--------|
D|--------|
A|--------|
E|--00----|
A|--00----|
    **


This is my first tab so go easy on me.  Thanks for using the tab make sure you give it a good rating.  
Any notes please email me.




************************************

| /   slide up
| \   slide down
| h   hammer-on
| p   pull-off
| ~   vibrato
| +   harmonic
| x   Mute note
| b   Bend
| pb  Pre-bend
| br  Bend release
| pbr Pre-bend release
| brb Bend release bend

************************************
Добавлено: 21.08.2014
Другие материалы по этой песне:

Страница создана 21.08.2014
http://primanota.ru/of-mice-and-men/public-service-announcement-chords.htm
Привет, Гость.
Предлагаем пройти революционный курс по гитаре.
Подарок от PrimaNota.Ru, забирай!