PrimaNota.ru - самый крупный в мире бесплатный архив песенных текстов, аккордов, табулатур и нот


Of Mice And Men - The Ballad Of Tommy Clayton & The Rawdawg Millionaire - текст песни, бас-таба, видео

Регистрация Запомнить меня
Войти через:  Facebook Google Twitter Vk Yandex Mail.ru

Of Mice And Men - The Ballad Of Tommy Clayton & The Rawdawg Millionaire - текст песни, бас-таба, видео

Печатать
Просмотров: 183
The Ballad Of Tommy Clayton And The Rawdawg Millionaire - Of Mice and Men
Tuning: C#


Intro:

F#|--------------------------------------------------------|
C#|--------------------------------------------------------|
G#|-------------------------5-8-0--------------------------|
C#|-12\1-00-3-7-0-0-0000-3-7-------55-55-55-11-11-11-111---|
                    ....              ..    ..    ..

F#|-----------------------------------------|
C#|-----------------------------------------|
G#|--------------------5-8-0----------------|
C#|-00-3-7-0-0-0000-3-7------55-55-55/1-111-|
               ....             ..

                 Verse:
F#|-------------------------------------------------|
C#|-------------------------------------------------|
G#|---------------------5-8-0-----------------------|
C#|-00-3-7-0-0-0000-3-7-------55-55-55-11-11-11-111-|


F#|-----------------------------------------|
C#|-----------------------------------------|
G#|--------------------5-8-0----------------|
C#|-00-3-7-0-0-0000-3-7------55-55-55/1-111-|
               ....             ..


         Prechorus: X2
F#|-------------------------------------------------|
C#|-------------------------------------------------|
G#|-------------------------------------------------|
C#|-00-000---55-55-55-11-11-11-111------------------|
       ..       ..    ..    ..

                  Chorus: X2                  Then this before
F#|------------------------------------------|-------------------------|
C#|------------------------------------------|-------------------------|
G#|------------------------------------------|-------------------------|
C#|-1-1-1-1~--3-3-3-3~--5-5-5-5~--3-3-3-3~---|------1-1-1-1~--3-3-3-3~-|
        .         .         .         .                .         .

         Prechorus:
F#|-------------------------------------------------|
C#|-------------------------------------------------|
G#|-------------------------------------------------|
C#|-00-000---55-55-55-11-11-11-111------------------|
       ..       ..    ..    ..

F#|-------------------------------------------------|
C#|-------------------------------------------------|
G#|-------------------------------------------------|
C#|-00-000---55-55-55-11-11-11-1-1\-----------------|
       ..       ..    ..    ..

          Breakdown: X2
F#|-------------------------------------------------|
C#|-------------------------------------------------|
G#|-------------------------------------------------|
C#|-1-1-111-1-1---1-1-111-1-1--8888877777-----------|
    . . ... . .   . . ... . .   . . ... . .   . .  . .

F#|-------------|----------------------------|
C#|-------------|----------------------------|
G#|-------------|----------------------------|
C#|-1-1-111-1-1-|----1-1-111-1-1--8888877777-|
    . . ... . .      . . ... . .   . .  . .

F#|------------------------------------------|
C#|------------------------------------------|
G#|------------------------------------5-8-4-|
C#|-1-1-111-1-1---1-1-111-1-1--0-3-7-0-------|
    . . ... . .   . . ... . .

         Repeat Verse X1


         then Bridge #2:
F#|--------------------------------------|
C#|--------------------------------------| x1
G#|--------------------------------------|
C#|-\0~----5~----1~----0~-----5~-----1~--|


          Breakdown #2:
F#|-----------------------------------------------------------------------|
C#|-----------------------------------------------------------------------|
G#|-----------------------------------------------------------------------|
C#|-0-0-00-0---00---0-0-00-0---00-00---0-0-00-0---00---0-0-00-0---00--\---|
    . . .. .   ..   . . .. .   .. ..   . . .. .   ..   . . .. .   ..

F#|------------------------------------------------------------------------|
C#|------------------------------------------------------------------------|
G#|------------------------------------------------------------------------|
C#|-0~-0~-00~-0~----0~-0~-00~-0~---00-00---0-0-00-0---00-00---0-0-00-0---0-|
    .  .  ..  .     .  .  ..  .    .. ..   . . .. .   .. ..   . . .. .   .

        Chorus X3
F#|-----------------------------|-----------------------------------------|
C#|-----------------------------|-----------------------------------------|
G#|-----------------------------|-----------------------------------------|
C#|-1~---3~--5-5-5-5~--3-3-3-3~-|-1-1-1-1~--3-3-3-3~--5-5-5-5~--3-3-3-3~--|
                 .         .          .         .         .         .

         Chorus switched up:

F#|----------------------------------------------|
C#|----------------------------------------------|
G#|----------------------------------------------|
C#|-1-1-11-1~--3333333--5-5-55-5~--3333333-------| X2
        ..                  ..

             End on:
F#|----------------------------|
C#|----------------------------|
G#|----------------------------|
C#|---1~-----------------------|
Добавлено: 24.05.2015
Другие материалы по этой песне:
  • Аккорды и текст

Страница создана 27.08.2014
http://primanota.ru/of-mice-and-men/ballad-of-tommy-clayton-and-rawdawg-millionaire-chords.htm
Привет, Гость.
Предлагаем пройти революционный курс по гитаре.
Подарок от PrimaNota.Ru, забирай!