PrimaNota.ru - самый крупный в мире бесплатный архив песенных текстов, аккордов, табулатур и нот


Odyssice - The Final Decission - таба, видео

Регистрация Запомнить меня
Войти через:  Facebook Google Twitter Vk Yandex Mail.ru

Odyssice - The Final Decission - таба, видео

Печатать
Просмотров: 56
                                          Artist - Odyssice
                                         *******************
                                     Song - The Final Decission
                                    ****************************
                                       Album - Moondrive Plus
                                      ************************                                      

 b = Bend 
rb = Reverse Bend
 s = Slide
 h = Hammer On
 p = Pull Off
UB = Union Bend 
PB = Pinch Bend
PH = Pinch Harmonic

                           

PIANO INTRO
************                                     
00:42
[--------------------11--------------------------]
[--11-11-13-13-15-15----15-13-11-10-10-------10--]
[--------------------------------------12-12-----]
[------------------------------------------------]
[---------------------X2-------------------------]
[------------------------------------------------]


SECTION 1
[---------------------------------11-----------]
[-----10-11---10-11-13---11-13-15----15-13-11--]
[--12------------------------------------------]
[----------------------------------------------]
[----------------------------------------------]
[----------------------------------------------]


[---------------------------------18-17-15--b--]
[-----10-11---10-11-13---11-13-15----------18--]
[--12------------------------------------------]
[----------------------------------------------]
[----------------------------------------------]
[----------------------------------------------]

                                               UB               UB UB UB
[---------------------------------11-----------10----p--s----|--10-10-10--]
[-----10-11---10-11-13---11-13-15----15-13-11--13--13-11\10--|--13-13-13--]
[--12--------------------------------------------------------|------------]
[------------------------------------------------------------|-only on the]
[------------------------------------------------------------|-last part--]
[------------------------------------------------------------|------------]


Repeat 
SECTION 1 - 2 times 01:48
********************


02:34
   UB  PB         TRILLLLLLLLLL           rb
[--15---b---br---h--p--h--p--h--p---s--|--10-rb-rb-rb-----]
[--18--18--18--15-18-15-18-15-18-15-\--|--13-13-13-13-13--]
[--------------------------------------|------------------]
[--------------------------------------|------------------]
[--------------------------------------|------------------]
[--------------------------------------|------------------]

02:49                                  PH 
[-------------------------|-----------------------------]
[------3-----h------------|------3----------h-----------]
[--0-3---2--2-3-2---------|--0-3---2---7---2-3-2-----s--]
[-----------------3-5--s--|----------------------3-5-\--]
[---------------------5\--|-----------------------------]
[-------------------------|-----------------------------]

            PH                               PH 
[-------------------------------|-----------------------------]
[------3----------h-------------|------3----------h-----------]
[--0-3---2---7---2-3-2----------|--0-3---2---7---2-3-2-----s--]
[----------------------3-5---s--|----------------------3-5-\--]
[--------------------------5-\--|-----------------------------]
[-------------------------------|-----------------------------]

03:18
   UB  UB  UB  UB
[------------------|------p----------------------------------------]
[--13--15--16--18--|--5--6-5-----6-8-5----p------------------------]
[--15--17--18--20--|---------7-5-------7-5-4-5--4-5------7--4---s--]
[------------------|--------------------------------7--5------5-\--]
[------------------|-----------------------------------------------]
[------------------|-----------------------------------------------]


[---------p----------------------------------------]
[--s--5--6-5-----6-8-5----p------------------------]
[-2\7--------7-5-------7-5-4-5--4-5------7--4---s--]
[-----------------------------------7--5------5-\--]
[--------------------------------------------------]
[--------------------------------------------------]

03:54                                                       b
[----------h--------------|---s-----------------8--7-8-10--10--]
[---s--6--5-6-----8--6-5--|--5\10--10-10-10-10-----------------]
[--2\7--------7-5---------|------------------------------------]
[-------------------------|------------------------------------]
[-------------------------|------------------------------------]
[-------------------------|------------------------------------]



[---s--------------------15-----br-|-----------------------------------]
[-10\17--18-17-15----18-----17-15--|---p---------h----------15--12-----]
[-----------------17---------------|-17-16-17--16-17-14--12--------12--]
[----------------------------------|-----------------------------------]
[----------------------------------|-----------------------------------]
[----------------------------------|-----------------------------------]


[---s--------------------15-----br-|-----------------------------b-r--]
[-10\17--18-17-15----18-----17-15--|---p---------h----------15--15----]
[-----------------17---------------|-17-16-17--16-17-14--12-----------]
[----------------------------------|----------------------------------]
[----------------------------------|----------------------------------]
[----------------------------------|----------------------------------]

04:39                                                    h        b
[---s----------------15-------s--|---s---17--17-17--20-19-20-22--22--]
[-10\18--17-18-15-------18-17-\--|-10\18-----------------------------]
[-----------------17-------------|-----------------------------------]
[--------------------------------|-----------------------------------]
[--------------------------------|-----------------------------------]
[--------------------------------|-----------------------------------]

04:45                           PH
[------p---------------------h-------------------------------------------]
[--5--6-5----h-p---6--6-8-6-5-6-----p------------------h-p-s-h-p---------]
[---------7-5-7-5---------------7--5-4-5--4-5------7--5-7-5\4-5-4-----s--]
[---------------------------------------------7--5----------------7--5\--]
[------------------------------------------------------------------------]
[------------------------------------------------------------------------]


[------p---------------------h-p----------------------------]
[--5--6-5----h-p---6-66-8-6-5-6-5---br--p------h---------s--]
[---------7-5-7-5-----------------7-7--5-4-5--4-5-----7--\--]
[-------------------------------------------------7-5-------]
[-----------------------------------------------------------]
[-----------------------------------------------------------]

05:23                                                       h       b
[-----------h--------------------h-p-s----s--------------8-7-8-10--10--]
[---s--6-6-5-6------p---8-8-8-8-6-8-6\5--5\10--10-10-10----------------]
[--2\7---------7-7-7-5-------------------------------------------------]
[----------------------------------------------------------------------]
[----------------------------------------------------------------------]
[----------------------------------------------------------------------]

                                                           h           b
[------------------15-------s--|----s---17--17-17-17-17--19-20-20--22-22--]
[--18--17-18-15-------18-17-\--|--10\18-----------------------------------]
[---------------17-------------|------------------------------------------]
[------------------------------|------------------------------------------]
[------------------------------|------------------------------------------]
[------------------------------|------------------------------------------]


Easy tune to play too Enjoy.........
Добавлено: 10.09.2013
Другие материалы по этой песне:
  • Аккорды и текст

Страница создана 10.09.2013
http://primanota.ru/odyssice/the-final-decission-chords.htm
Привет, Гость.
Предлагаем пройти революционный курс по гитаре.
Подарок от PrimaNota.Ru, забирай!