PrimaNota.ru - самый крупный в мире бесплатный архив песенных текстов, аккордов, табулатур и нот


Odyssice - Frustrations - таба, видео

Регистрация Запомнить меня
Войти через:  Facebook Google Twitter Vk Yandex Mail.ru

Odyssice - Frustrations - таба, видео

Печатать
Просмотров: 54
                                       Artist - Odyssice
                                      -------------------
                                      Song - Frustrations
                                     ---------------------
                                     Album - Moondrive Plus
                                    ------------------------  

                                     

Intro
------

                              
01:27             b    p  p        01:37
[-----12-14-15---15--15-14-12--14--|-----12-14-15-14-12-----b--]
[--12------------------------------|--12----------------15-15--]
[----------------------------------|---------------------------]
[----------------------------------|---------------------------]
[----------------------------------|---------------------------]
[----------------------------------|---------------------------]

                              Use Vol Control or Vol Pedal
[---b--b--b--b--r---h--p----|-------------------------------------]
[--15-15-15-15----12-15-12--|--13-12-10---13-12-------------------]
[---------------------------|-------------------11---7-9---12-11--]
[---------------------------|-------------------------------------]
[---------------------------|-------------------------------------]
[---------------------------|-------------------------------------]


 02:06            b    p  p
[-----15-17-18---18--18-17-15--17--|-----15-17-18-17-15-----b--]
[--15------------------------------|--15----------------18-18--]
[----------------------------------|---------------------------]
[----------------------------------|---------------------------]
[----------------------------------|---------------------------]
[----------------------------------|---------------------------]

                              Use Vol Control or Vol Pedal
[---b--b--b--b--r---h--p----|----------------------------------------------]
[--18-18-18-18----15-18-15--|--16-15-13---16-15----------------------------]
[---------------------------|-------------------14---10-12--8-7--8-7-5--7-2]
[---------------------------|----------------------------------------------]
[---------------------------|----------------------------------------------]
[---------------------------|----------------------------------------------]

02:55
Use Vol Control
or Vol Pedal      03:17       03:32
[----------------|--------|--------|-----------|-------------|------------]
[----------------|--------|--------|-----------|-------------|------------]
[--3--5--6-8-10--|-----h--|-----h--|--h--6-6---|----------h--|--h--6-6----]
[----------------|-6--6-8-|-6--6-8-|-6-8-----8-|--h--6-6-6-8-|-6-8-----8--]
[----------------|--------|--------|-----------|-6-8---------|------------]
[----------------|--------|--------|-----------|-------------|------------]

03:42                           Pinched Harmonic Band
[--------------------|----------------]
[-----------------b--|-----------PHb--]
[---h--6---6---6--8--|--8----8----8---]
[--6-8---8---8-------|----11---11-----]
[--------------------|----------------]
[--------------------|----------------]

03:47
[----------------|-------------|-----------------------]
[----------------|-------------|-----------------------]
[---h--------h---|-------------|---h--------h---8---6--]
[--6-8-8--6-6-8--|---h--6---6--|--6-8-8--6-6-8----8----]
[----------------|--6-8---8----|-----------------------]
[----------------|-------------|-----------------------]


[---------|-------------|--------------------------]
[---------|-------------|--------------------------]
[---------|-------------|---h---------h---8---6----]
[--8-8-8--|---h--6---6--|--6-8-8--6--6-8----8---8--]
[---------|--6-8---8----|--------------------------]
[---------|-------------|--------------------------]

                            Pinched Harmonic Band
[----------------|----------------]
[-------------b--|-----------PHb--]
[--6---6---6--8--|--8----8----8---]
[----8---8-------|----11---11-----]
[----------------|----------------]
[----------------|----------------]

   A            D#          A           D#
[----------------------------------------------------------------]
[-------scratch-8---------------scratch-8-----------------TRILL--]
[--7----- pleck-8-------h---7-----pleck-8-------h---7------h-p---]
[--8------x-----8----6-6-8--8------x----8----6-6-8--8-----6-8-6--]
[--8------x-----6-----------8------x----6-----------8------------]
[--6------x-----------------6------x----------------6------------]


04:37                                                                 b  b
[---------------------------------------|---------------|--19-21-22--22-22-]
[-------s--------s----------------------|-----------16--|------------------]
[----5-6\-----5-6\-----5-6-8-----5-6-8--|--15-17-18-----|------------------]
[--8--------8--------8---------8--------|---------------|------------------]
[---------------------------------------|---------------|------------------]
[---------------------------------------|---------------|------------------]


[-------------------|-------------------------]
[-------------------|-------------11----------]
[-10-13-12-------12-|-10-13-12-------13-12-13-]
[----------13-10----|----------13-------------]
[-------------------|-------------------------]
[-------------------|-------------------------]


[-------------------11--------s-]
[-------------11-13---14-13-13\-]
[-10-13-12-13-------------------]
[-------------------------------]
[-------------------------------]
[-------------------------------]

05:01
[-----------------------------|------------------------------------]
[-----------------------------|-------------------p--------h--p----]
[--12-13-15-13--12-13-12------|-12-13-15-13-12--13-12----12-13-12--]
[--------------------------15-|-----------------------15-----------]
[-----------------------------|------------------------------------]
[-----------------------------|------------------------------------]


[-----------------------------------|--------------------p---------h--p--s-]
[--13-14-16-14-13--14-13--14-13-----|--13-14-16-14-13--14-13-----13-14-13\-]
[-------------------------------15--|------------------------15------------]
[-----------------------------------|--------------------------------------]
[-----------------------------------|--------------------------------------]
[-----------------------------------|--------------------------------------]

05:10
[-------------------------------|------------------]
[------------h---p--s-----------|----h--p--s-------]
[--------11----13-11\10---------|--11-13-11\10-----]
[---13-------------------11-----|--------------13--]
[---------------------------13--|------------------]
[-------------------------------|------------------]

05:16
[---------------------------|--------------|-----------------]
[---------------------------|----p--p------|-----------------]
[--11-10-11--11-11-10-11-13-|--13-11-10----|--11-13-10-------]
[---------------------------|-----------13-|-----------11----]
[---------------------------|--------------|--------------13-]
[---------------------------|--------------|-----------------]


[------------------------|--------------------------|----------------------]
[----h--p------p--p------|--------------------------|---p--p---------------]
[--10-11-10--13-11-10----|-11-10-11--11-11-10-11-13-|-13-11-10-------s-----]
[---------------------13-|--------------------------|----------13--13\-----]
[------------------------|--------------------------|-------------------X--]
[------------------------|--------------------------|----------------------]

05:34
[-----------------------------]
[--------------------------6--]
[-----scratch--------------7--]
[--8---pleck--6---------8--8--]
[--8----X-----6----X----8--8--]
[--6----X-----4----X----6--6--]

05:48
(Section 1)
[---p--p------p--p------|---p--p------p--p-------|---p--p------p--p-------]
[-14-13-11--14-13-11-14-|-16-14-13--16-14-13-16--|-18-16-14--18-16-14-18--]
[-----------------------|------------------------|------------------------]
[-----------------------|------------------------|------------------------]
[-----------------------|------------------------|------------------------]
[-----------------------|------------------------|------------------------]


[----p--p------p--p------|----p--p------p--p-------|------b--]
[--19-18-16--19-18-16-19-|--21-19-18--21-19-18-21--|--18-21--]
[------------------------|-------------------------|---------]
[------------------------|-------------------------|---------]
[------------------------|-------------------------|---------]
[------------------------|-------------------------|---------]

Do (Section 1) but a little faster

Do (Section 1) but a even faster

06:15
[--------------|--------------|--------------|--------------]
[--------------|--------------|--------------|-----------s--]
[----6-5-----5-|----6-5---8---|----6-5-----5-|----6-5---8\--]
[--8-----6-----|--8-----6---6-|--8-----6-----|--8-----6-----]
[----------8---|--------------|----------8---|--------------]
[--------------|--------------|--------------|--------------]

06:25
Keyboards

06:34
Use Vol Control or Vol Pedal
[--------------------------------------------------]
[----------------------------------b----brp--------]
[--18------17-----20----18-17-15-15----15--13-15---]
[--------------------------------------------------]
[--------------------------------------------------]
[--------------------------------------------------]

06:53
[---------b---b--b--b--b--b--b-r---trill--------------hold----------------]
[--18-21-21--21-21-21-21-21-21---18-----21------b---b---b------------s----]
[-------------------------------------------20-20--20--20---17-20--18\17--]
[-------------------------------------------------------------------------]
[-------------------------------------------------------------------------]
[-------------------------------------------------------------------------]


[--------------|--18-21-20-18-----b--b--b--b--b--b--b--b--br--]
[----s---21-21-|--------------21-21-21-21-21-21-21-21-21-21---]
[--12\20-------|----------------------------------------------]
[--------------|----------------------------------------------]
[--------------|----------------------------------------------]
[--------------|----------------------------------------------]

07:12     b  b  b  b  b  b  b  b  b
[--18-21-21-21-21-21-21-21-21-21-21-21-21-21--]
[---------------------------------------------]
[---------------------------------------------]
[---------------------------------------------]
[---------------------------------------------]
[---------------------------------------------]

     p  p
[-21-20-18-|---p--p---|---------------------------hold---------------------]
[----------|-21-20-18-|----p--p-----p--p-----b--b--br---p----b--b--b---p---]
[-do this--|----------|-21-20-18--21-20-18--20-20-20--20-18-20-20-20-20-18-]
[--till----|-do this--|----------------------------------------------------]
[-Change---|--till----|----------------------------------------------------]
[----------|-Change---|----------------------------------------------------]


[----------------]
[--A slow trill--]
[-----p--h-------]
[---20-18-20-----]
[----------------]
[-play to change-]

07:31
[-------------------|-------------------------]
[-------------------|-------------11----------]
[-10-13-12-------12-|-10-13-12-------13-12-13-]
[----------13-10----|----------13-------------]
[-------------------|-------------------------]
[-------------------|-------------------------]


[-------------------11--------s-]
[-------------11-13---14-13-13\-]
[-10-13-12-13-------------------]
[-------------------------------]
[-------------------------------]
[-------------------------------]

07:41
[-----------------------------|------------------------------]
[-----------------------------|-------------------p----------]
[--12-13-15-13--12-13-12------|-12-13-15-13-12--13-12----12--]
[--------------------------15-|-----------------------15-----]
[-----------------------------|------------------------------]
[-----------------------------|------------------------------]

07:45
[-----------------------------------|--------------------p-----------]
[--13-14-16-14-13--14-13--14-13-----|--13-14-16-14-13--14-13-----13--]
[-------------------------------15--|------------------------15------]
[-----------------------------------|--------------------------------]
[-----------------------------------|--------------------------------]
[-----------------------------------|--------------------------------]

07:50
[--13-11-13-11--13-11--13-11--13-13-13-13--]
[------------------------------------------]
[------------------------------------------]
[------------------------------------------]
[------------------------------------------]
[------------------------------------------]
Добавлено: 04.06.2013
Вам также может быть интересно:
Другие материалы по этой песне:
  • Аккорды и текст

Страница создана 04.06.2013
http://primanota.ru/odyssice/frustrations-chords.htm
Привет, Гость.
Предлагаем пройти революционный курс по гитаре.
Подарок от PrimaNota.Ru, забирай!