PrimaNota.ru - самый крупный в мире бесплатный архив песенных текстов, аккордов, табулатур и нот


Odious Mortem - Gristle Dripping Scab - таба, видео

Регистрация Запомнить меня
Войти через:  Facebook Google Twitter Vk Yandex Mail.ru

Odious Mortem - Gristle Dripping Scab - таба, видео

Печатать
Просмотров: 78
--- ODIOUS MORTEM --- 
                          "Gristle Dripping Scab" 
                     From album: "Devouring The Prophecy" 
                     

                            TABULATURE LEGEND: 
                   " - tremolo             h - hammer on            
                   ~ - vibrato             \ - slide down 
                   p - pull off            / - slide down 
                  tr - tremolo picking     ^ - pinch harmonics      
                   = - sustained note      b - bend string          
                p.m. - palm muting         t - tapping 

TUNING: C# G# C# F# A# D# 

[Riff 1 (x2)] 
||--------------------------------------------------------|- 
||o-------------------------------------------------------|- 
||--------------------------------------------------------|- 
||--2--2------2--2------2--3--2--2------2--2------------3-|- 
||o-1--1------1--1------1--2--1--1------1--1------2-3-----|- 
||--2--2--2-2-2--2--2-2-2--3--2--2--2-2-2--2--2-3-----2---|- 
|         . .       . .             . .       . . . . . . | 
||--------------------------------------------------------|- 
||o-------------------------------------------------------|- 
||--------------------------------------------------------|- 
||--2--2------2--2------2--3--2--2------2--2------------3-|- 
||o-1--1------1--1------1--2--1--1------1--1------2-3-----|- 
||--2--2--2-2-2--2--2-2-2--3--2--2--2-2-2--2--2-3-----2---|- 
          . .       . .             . .       . . . . . . 

-|----------------------------------------------------------------|- 
-|----------------------------------------------------------------|- 
-|----------------------------------------------------------------|- 
-|-2--2------2--2------2--3--2--2------2--------------------------|- 
-|-1--1------1--1------1--2--1--1------1--------------------------|- 
-|-2--2--2-2-2--2--2-2-2--3--2--2--2-2-2--2h5p2-1h4p1-4h7p4-3h6p3-|- 
 |       . .       . .             . .                            | 
-|----------------------------------------------------------------|- 
-|----------------------------------------------------------------|- 
-|----------------------------------------------------------------|- 
-|-2--2------2--2------2--3--2--2------2--------------------------|- 
-|-1--1------1--1------1--2--1--1------1--------------------------|- 
-|-2--2--2-2-2--2--2-2-2--3--2--2--2-2-2--2h5p2-1h4p1-4h7p4-3h6p3-|- 
         . .       . .             . . 

-|-------------------------------------------------------|- 
-|-------------------------------------------------------|- 
-|-------------------------------------------------------|- 
-|-4--4------4--4------4--5--4--4------4--4------------5-|- 
-|-3--3------3--3------3--4--3--3------3--3------4-5-----|- 
-|-4--4--4-4-4--4--4-4-4--5--4--4--4-4-4--4--4-5-----4---|- 
 |       . .       . .             . .       . . . . . . | 
-|-------------------------------------------------------|- 
-|-------------------------------------------------------|- 
-|-------------------------------------------------------|- 
-|-4--4------4--4------4--5--4--4------4--4------------5-|- 
-|-3--3------3--3------3--4--3--3------3--3------4-5-----|- 
-|-4--4--4-4-4--4--4-4-4--5--4--4--4-4-4--4--4-5-----4---|- 
         . .       . .             . .       . . . . . . 

|----------------------------------------------------------|| 
|-----------------------------------------------------^-^-o|| 
|-----------------------------------------------------4-3--|| 
|-4--4------4--4------4--5--4--4----------5-4---4-3--------|| 
|-3--3------3--3------3--4--3--3--4-5-5-6-----5-----4-----o|| 
|-4--4--4-4-4--4--4-4-4--5--4--4---------------------------|| 
|       . .       . .             . . . . . . . . . .       | 
|----------------------------------------------------------|| 
|-----------------------------------------------------^-^-o|| 
|-----------------------------------------------------4-3--|| 
|-4--4------4--4------4--5--4--4----------5-4---4-3--------|| 
|-3--3------3--3------3--4--3--3--4-5-5-6-----5-----4-----o|| 
|-4--4--4-4-4--4--4-4-4--5--4--4---------------------------|| 
        . .       . .             . . . . . . . . . . 

[Outro 1] 
|-------------------------------------------------------|- 
|-------------------------------------------------------|- 
|-------------------------------------------------------|- 
|-2--2------2--2------2--3--2--2------2--2------------3-|- 
|-1--1------1--1------1--2--1--1------1--1------2-3-----|- 
|-2--2--2-2-2--2--2-2-2--3--2--2--2-2-2--2--2-3-----2---|- 
|       . .       . .             . .       . . . . . . | 
|-------------------------------------------------------|- 
|-------------------------------------------------------|- 
|-------------------------------------------------------|- 
|-2--2------2--2------2--3--2--2------2--2------------3-|- 
|-1--1------1--1------1--2--1--1------1--1------2-3-----|- 
|-2--2--2-2-2--2--2-2-2--3--2--2--2-2-2--2--2-3-----2---|- 
        . .       . .             . .       . . . . . . 

-|---------------------------------------| 
-|---------------------------------------| 
-|---------------------------------------| 
-|-2--2------2--2------2--3--2--2------2-| 
-|-1--1------1--1------1--2--1--1------1-| 
-|-2--2--2-2-2--2--2-2-2--3--2--2--2-2-2-| 
 |       . .       . .             . .   | 
-|---------------------------------------| 
-|---------------------------------------| 
-|---------------------------------------| 
-|-2--2------2--2------2--3--2--2------2-| 
-|-1--1------1--1------1--2--1--1------1-| 
-|-2--2--2-2-2--2--2-2-2--3--2--2--2-2-2-| 
         . .       . .             . . 

[Riff 2a (x2)] 
||------------------------------------|---------------------------|| 
||o-----------------------------------|---------------11-9-9-----o|| 
||------------9------------10---------|-----9--------------9------|| 
||------9---8-------10---9----------9-|---8-------8-9--------8-9--|| 
||o-7-8---7-----8-9----8----------8---|-8------------------------o|| 
||----------------------------0-7-----|-------0-8-----------------|| 
|   . . . . . . . . .  . . .  . . . . | . . . . . . . .  . . . .   | 
||------------------------------------|---------------------------|| 
||o-----------------------------------|---------------11-9-9-----o|| 
||------------9------------10---------|-----9--------------9------|| 
||------9---8-------10---9----------9-|---8-------8-9--------8-9--|| 
||o-7-8---7-----8-9----8----------8---|-8------------------------o|| 
||----------------------------0-7-----|-------0-8-----------------|| 
    . . . . . . . . .  . . .  . . . .   . . . . . . . .  . . . . 

[Riff 2b (x2)] 
||------------7-------------8---------|-----7---------------------|| 
||o-----7------------8--------------7-|-----------8------11-9----o|| 
||----5---4-5-----6----5-6--------5---|-4-5-----5------9----9-----|| 
||------------------------------------|-------------9---------8-9-|| 
||o-7-----------8---------------7-----|-------8------------------o|| 
||----------------------------0-------|---------------------------|| 
|   . . . . . . . .  . . .  . . . . . | . . . . . . .  . .  . . .  | 
||------------------------------------|---------------------------|| 
||o-----------------------------------|---------------11--9-9----o|| 
||------------9------------10---------|-----9---------------9-----|| 
||------9---8-------10---9----------9-|---8-------8-9---------8-9-|| 
||o-7-8---7-----8-9----8----------8---|-8------------------------o|| 
||----------------------------0-7-----|-------0-8-----------------|| 
    . . . . . . . . .  . . .  . . . .   . . . . . . . .   . . . . 

[Riff 3 (x2)] 
||------------------------------------------------------|- 
||o-----------------------------------------------------|- 
||------------------------------------------------------|- 
||----------222---------333-------------222---------333-|- 
||o-----111---------222-----000-----111-----555-222-222-|- 
||--222---------333---------000-222---------666-333-----|- 
|   ... ... ... ... ... ... ... ... ... ... ... ... ... | 
||------------------------------------------------------|- 
||o-----------------------------------------------------|- 
||------------------------------------------------------|- 
||----------222---------333-------------222---------333-|- 
||o-----111---------222-----000-----111-----555-222-222-|- 
||--222---------333---------000-222---------666-333-----|- 
    ... ... ... ... ... ... ... ... ... ... ... ... ... 

[ending 1] 
-|----------------------------------------------------------|| 
-|---------------------------------------------------------o|| 
-|----------------------------------------------------------|| 
-|---------222---------333-------------222-9---8------------|| 
-|-----111---------222-----000-----111-------8---7---8-----o|| 
-|-222---------333---------000-222-----------------8---7-0--|| 
 | ... ... ... ... ... ... ... ... ... ... . . . . . . . .   | 
-|----------------------------------------------------------|| 
-|---------------------------------------------------------o|| 
-|----------------------------------------------------------|| 
-|---------222---------333-------------222-9---8------------|| 
-|-----111---------222-----000-----111-------8---7---8-----o|| 
-|-222---------333---------000-222-----------------8---7-0--|| 
   ... ... ... ... ... ... ... ... ... ... . . . . . . . . 

[ending 2] 
-|----------------------------------------------------------| 
-|----------------------------------------------------------| 
-|----------------------------------------------------------| 
-|---------222---------333-------------222-12--11-----------| 
-|-----111---------222-----000-----111-------11--10--11-----| 
-|-222---------333---------000-222-----------------11--10-0-| 
 | ... ... ... ... ... ... ... ... ... ... . . . . . . .  . | 
-|----------------------------------------------------------| 
-|----------------------------------------------------------| 
-|----------------------------------------------------------| 
-|---------222---------333-------------222-9---8------------| 
-|-----111---------222-----000-----111-------8---7---8------| 
-|-222---------333---------000-222-----------------8---7--0-| 
   ... ... ... ... ... ... ... ... ... ... . . . . . . .  . 

[Outro 2] 
|-------------------------|-----------------------------| 
|-------------------------|-----------6-----------9-----| 
|-----------5-----------7-|-----4---4-------7---7-------| 
|-----4---4-------6---6---|---2---3-------5---6---------| 
|-------3-----------5-----|-1-----------5---------------| 
|-4-3---------6-5---------|-------------------------8-8-| 
| . . . . . . . . . . . . | . . . . . . . . . . . . . . | 
|-------------------------|-----------------------------| 
|-------------------------|-----------6-----------9-----| 
|-----------5-----------7-|-----4---4-------7---7-------| 
|-----4---4-------6---6---|---2---3-------5---6---------| 
|-------3-----------5-----|-1-----------5---------------| 
|-4-3---------6-5---------|-------------------------8-8-| 
  . . . . . . . . . . . .   . . . . . . . . . . . . . . 

[RIFF 2a] [RIFF 2b] [RIFF 3 (x2)] (ending 1, ending 2) 

[Ending] 
|-----------------|----------------| 
|-----------------|----------------| 
|-----------------|----------------| 
|-8-7---3---------|-3=====......---| 
|-----7---2-----1-|-2======.....---| 
|-----------3-2---|-3=======....---| 
| . . . . . . . . | 
|-----------------|----------------| 
|-----------------|----------------| 
|-----------------|----------------| 
|-8-7---3---------|-3=====......---| 
|-----7---2-----1-|-2======.....---| 
|-----------3-2---|-3=======....---| 
  . . . . . . . . 

END OF SONG
Добавлено: 20.06.2013
Другие материалы по этой песне:

Страница создана 20.06.2013
http://primanota.ru/odious-mortem/gristle-dripping-scab-chords.htm
Привет, Гость.
Предлагаем пройти революционный курс по гитаре.
Подарок от PrimaNota.Ru, забирай!