PrimaNota.ru - самый крупный в мире бесплатный архив песенных текстов, аккордов, табулатур и нот


Odious Mortem - Debacle By Cephalopod - таба, видео

Регистрация Запомнить меня
Войти через:  Facebook Google Twitter Vk Yandex Mail.ru

Odious Mortem - Debacle By Cephalopod - таба, видео

Печатать
Просмотров: 91
--- ODIOUS MORTEM --- 
                         "Debacle By Cephalopad" 
                     From album: "Devouring The Prophecy" 
                     

                            TABULATURE LEGEND: 
                   " - tremolo             h - hammer on            
                   ~ - vibrato             \ - slide down 
                   p - pull off            / - slide down 
                  tr - tremolo picking     ^ - pinch harmonics      
                   = - sustained note      b - bend string          
                p.m. - palm muting         t - tapping 

TUNING: C# G# C# F# A# D# 

[Riff 1 (x2)] 
||----------------------------------|---------------------------------|- 
||o---------------------------------|---------------------------------|- 
||----------------------------------|---------------------------------|- 
||----------------------------------|---------------------------------|- 
||o-----6-----------6-------6-------|-----6-------6-----------6-------|- 
||--5-7---7-6-5-6-7---7-6-7---7-6-7-|-5-7---7-6-7---7-6-7-5-7---7-6-5-|- 
|   . . . . . . . . . . . . . . . . | . . . . . . . . . . . . . . . . | 
||----------------------------------|---------------------------------|- 
||o---------------------------------|---------------------------------|- 
||----------------------------------|---------------------------------|- 
||----------------------------------|---------------------------------|- 
||o-----6-----------6-------6-------|-----6-------6-----------6-------|- 
||--5-7---7-6-5-6-7---7-6-7---7-6-7-|-5-7---7-6-7---7-6-7-5-7---7-6-5-|- 
    . . . . . . . . . . . . . . . .   . . . . . . . . . . . . . . . . 

-|------------------------------|| 
-|-----------------------------o|| 
-|------------------------------|| 
-|------------------------------|| 
-|-----6h7-------------5h7-4h6-o|| 
-|-6-7-----7h9-6h8-5h7----------|| 
 | . .                           | 
-|------------------------------|| 
-|-----------------------------o|| 
-|------------------------------|| 
-|------------------------------|| 
-|-----6h7-------------2h4-1h3-o|| 
-|-6-7-----4h6-3h5-2h4----------|| 
   . . 

[Riff 2 (x2)] 
||------------------------------------|-------------------------------|- 
||o-----------------------------------|-------------------------------|- 
||------------------------------------|-------5---4-------------------|- 
||------------------------------------|---------4---3-----------------|- 
||o-----6---6-----------6-------6h7p6-|-----4-------------6---6-------|- 
||--5-7---7---7-6-5-6-7---7-5-7-------|-7-6-----------5-7---7---7-6-5-|- 
|   . . . . . . . . . . . . . .       | . . . . . . . . . . . . . . . | 
||------------------------------------|-------------------------------|- 
||o-----------------------------------|-------------------------------|- 
||------------------------------------|-------------------------------|- 
||------------------------------------|-------7---6-------------------|- 
||o-----6---6-----------6-------6h7p6-|---------6---5-----6---6-------|- 
||--5-7---7---7-6-5-6-7---7-5-7-------|-7-6-5---------5-7---7---7-6-5-|- 
    . . . . . . . . . . . . . .         . . . . . . . . . . . . . . . 

-|--------------------------------------------------|| 
-|-------------------------------------------------o|| 
-|--------------------------------------------------|| 
-|--------------------------------------------------|| 
-|-----6-------6---6---------------2---1---1---1---o|| 
-|-6-7---7-6-7---7---7-6-5-6-0-3-0---3---2---2---2--|| 
 | . . . . . . . . . . . . . . . . . . . . . . . .   | 
-|--------------------------------------------------|| 
-|-------------------------------------------------o|| 
-|--------------------------------------------------|| 
-|--------------------------------------------------|| 
-|-----6-------6---6-------------------------------o|| 
-|-6-7---7-6-7---7---7-6-5-6-0-3-0-3-0-2-0-2-0-2-0--|| 
   . . . . . . . . . . . . . . . . . . . . . . . . 

[Riff 3] 
|-------------------------|-------------------------|- 
|-------------------------|-------------------------|- 
|-------------------------|-------------------------|- 
|-------------------------|-------------------------|- 
|------7----6--------8----|------7----8---------6---|- 
|-7-10---10---9-7-10---11-|-7-10---10---11-7-10---9-|- 
| . .  . .  . . . .  . .  | . .  . .  . .  . .  . . | 
|-------------------------|-------------------------|- 
|-------------------------|-------------------------|- 
|-------------------------|-------------------------|- 
|-------------------------|-------------------------|- 
|------7----6--------8----|------7----8---------6---|- 
|-7-10---10---9-7-10---11-|-7-10---10---11-7-10---9-|- 
  . .  . .  . . . .  . .    . .  . .  . .  . .  . . 

-|-------------------------|-------------------------|- 
-|-------------------------|-------------------------|- 
-|-------------------------|-------------------------|- 
-|-------------------------|---------------------^---|- 
-|------7----6--------8----|------7----8---------6~~-|- 
-|-7-10---10---9-7-10---11-|-7-10---10---11-7-10-----|- 
 | . .  . .  . . . .  . .  | . .  . .  . .  . .      | 
-|-------------------------|-------------------------|- 
-|-------------------------|-------------------------|- 
-|-------------------------|-------------------------|- 
-|-------------------------|---------------------^---|- 
-|------7----6--------8----|------7----8---------6~~-|- 
-|-7-10---10---9-7-10---11-|-7-10---10---11-7-10-----|- 
   . .  . .  . . . .  . .    . .  . .  . .  . . 

-|-------------------------|-------------------------|- 
-|-------------------------|-------------------------|- 
-|-------------------------|-------------------------|- 
-|-------------------------|-------------------------|- 
-|------7----6--------8----|------7----8---------6---|- 
-|-7-10---10---9-7-10---11-|-7-10---10---11-7-10---9-|- 
 | . .  . .  . . . .  . .  | . .  . .  . .  . .  . . | 
-|-------------------------|-------------------------|- 
-|-------------------------|-------------------------|- 
-|-------------------------|-------------------------|- 
-|-------------------------|-------------------------|- 
-|------7----6--------8----|------7----8---------6---|- 
-|-7-10---10---9-7-10---11-|-7-10---10---11-7-10---9-|- 
   . .  . .  . . . .  . .    . .  . .  . .  . .  . . 

-|-------------------------|------------------------------------| 
-|-------------------------|------------------------------------| 
-|-------------------------|---------------8h9--------------8h9-| 
-|-------------------------|-----7h8-10h11----------5h8-7h8-----| 
-|------7----6--------8----|-5h6---------------10p7-------------| 
-|-7-10---10---9-7-10---11-|------------------------------------| 
 | . .  . .  . . . .  . .  |                                    | 
-|-------------------------|------------------------------------| 
-|-------------------------|------------------------------------| 
-|-------------------------|---------------8h9--------------8h9-| 
-|-------------------------|----------7h=8----------5h8-7h8-----| 
-|------7----6--------8----|-----7h8-----------10p7-------------| 
-|-7-10---10---9-7-10---11-|-7h8--------------------------------| 
   . .  . .  . . . .  . . 

[Riff 4 (x2)] 
||----------------------------------|---------------------------------------|- 
||o---------------------------------|---------------------------------------|- 
||----------------------------------|---------------------------------------|- 
||----------------------------------|---------------------------------------|- 
||o-----6h7p0-5h6p0-----6h7p0-5h6p0-|-----6h7p0-5h6p0-----6h7p0-5h6p0-2h3p0-|- 
||--7-0-------------7-0-------------|-7-0-------------7-0-------------------|- 
|   . .             . .             | . .             . .                   | 
||----------------------------------|---------------------------------------|- 
||o---------------------------------|---------------------------------------|- 
||----------------------------------|---------------------------------------|- 
||----------------------------------|---------------------------------------|- 
||o-----6h7p0-5h6p0-----6h7p0-5h6p0-|-----6h7p0-5h6p0-----6h7p0-5h6p0-2h3p0-|- 
||--7-0-------------7-0-------------|-7-0-------------7-0-------------------|- 
    . .             . .               . .             . . 

-|---------------------------------|-------------------------------------|- 
-|---------------------------------|-------------------------------------|- 
-|---------------------------------|-------------------------------------|- 
-|---------------------------------|---------------------------------4---|- 
-|-----3h4p0-2h3p0-----3h4p0-2h3p0-|-----3h4p0-2h3p0-----3-0-3-6-5-6---6-|- 
-|-4-0-------------4-0-------------|-4-0-------------4-0-----------------|- 
 | . .             . .             | . .             . . . . . . . . . . | 
-|---------------------------------|-------------------------------------|- 
-|---------------------------------|-------------------------------------|- 
-|---------------------------------|-------------------------------------|- 
-|---------------------------------|---------------------------------4---|- 
-|-----3h4p0-3h6p3-----3h4p0-3h6p3-|-----3h4p0-3h6p3-----3-0-3-6-5-6---6-|- 
-|-4-0-------------4-0-------------|-4-0-------------4-0-----------------|- 
   . .             . .               . .             . . . . . . . . . . 

-|---------------------------------|----------------------------------------|- 
-|---------------------------------|----------------------------------------|- 
-|---------------------------------|----------------------------------------|- 
-|---------------------------------|----------------------------------------|- 
-|-----6h7p0-5h6p0-----6h7p0-5h6p0-|-----6h7p0-5h6p0-----6h7p0-5h6p0-2h3p0--|- 
-|-7-0-------------7-0-------------|-7-0-------------7-0--------------------|- 
 | . .             . .             | . .             . .                    | 
-|---------------------------------|----------------------------------------|- 
-|---------------------------------|----------------------------------------|- 
-|---------------------------------|----------------------------------------|- 
-|---------------------------------|----------------------------------------|- 
-|-----6h7p0-5h6p0-----6h7p0-5h6p0-|-----6h7p0-5h6p0-----6h7p0-5h6p0-2h3p0--|- 
-|-7-0-------------7-0-------------|-7-0-------------7-0--------------------|- 
   . .             . .               . .             . .      

-|---------------------------------|----------------- 
-|---------------------------------|----------------- 
-|---------------------------------|----------------- 
-|---------------------------------|----------------- 
-|-----3h4p0-2h3p0-----3h4p0-2h3p0-|-----3h4p0-2h3p0- 
-|-4-0-------------4-0-------------|-4-0------------- 
 | . .             . .             | . . 
-|---------------------------------|----------------- 
-|---------------------------------|----------------- 
-|---------------------------------|----------------- 
-|---------------------------------|----------------- 
-|-----3h4p0-3h6p0-----3h4p0-3h6p0-|-----3h4p0-3h6p3- 
-|-4-0-------------4-0-------------|-4-0------------- 
   . .             . .               . . 

-------------------------------------|| 
------------------------------------o|| 
-------------------------------------|| 
-----------------4---4-7-6-7-7h10p7--|| 
-----3-0-3-6-5-6---6----------------o|| 
-4-0---------------------------------|| 
 . . . . . . . . . . . . . .          | 
-------------------------------------|| 
------------------------------------o|| 
-------------------------------------|| 
-----------------4---4-7-6-7-7h10p7--|| 
-----3-0-3-6-5-6---6----------------o|| 
-4-0---------------------------------|| 
 . . . . . . . . . . . . . . 

[Riff 5a (x2)] 
||-----------------------------------|------------------------------------|| 
||o----------------------------------|-----------------------------------o|| 
||-----------------------------------|------------------------------------|| 
||-----------------------------------|----------------------------7-6~~~--|| 
||o------7---8---7-------6---7---6---|------7---8---7-------6---6--------o|| 
||--7-10---7---7---7-6-9---6---6---6-|-7-10---7---7---7-6-7---7-----------|| 
|   . .  . . . . . . . . . . . . . . | . .  . . . . . . . . . . . .        | 
||-----------------------------------|------------------------------------|| 
||o----------------------------------|-----------------------------------o|| 
||-----------------------------------|------------------------------------|| 
||-----------------------------------|----------------------------7-6~~~--|| 
||o------7---8---7-------6---7---6---|------7---8---7-------6---6--------o|| 
||--7-10---7---7---7-6-9---6---6---6-|-7-10---7---7---7-6-7---7-----------|| 
    . .  . . . . . . . . . . . . . .   . .  . . . . . . . . . . . . 

[Riff 5b] 
|----------------------------------|---------------------------------| 
|----------------------------------|---------------------------------| 
|----------------------------------|--------------------------10-9-8-| 
|----------------------------------|----------------------8----------| 
|------7---8---7-------6---7---6---|------7---8---7---------6--------| 
|-7-10---7---7---7-6-9---6---6---6-|-7-10---7---7---7-6-7------------| 
| . .  . . . . . . . . . . . . . . | . .  . . . . . . . . . . .  . . | 
|----------------------------------|---------------------------------| 
|----------------------------------|---------------------------------| 
|----------------------------------|---------------------------------| 
|----------------------------------|-----------------------------7-6-| 
|------7---8---7-------6---7---6---|------7---8---7-------6----6-----| 
|-7-10---7---7---7-6-9---6---6---6-|-7-10---7---7---7-6-7---7--------| 
  . .  . . . . . . . . . . . . . .   . .  . . . . . . . . . .  . . . 

[RIff 5c] 
|----------------------------------| 
|----------------------------------| 
|----------------------------------| 
|----------------------------------| 
|------7---8---7-------6---7---6---| 
|-7-10---7---7---7-6-9---6---6---6-| 
| . .  . . . . . . . . . . . . . . | 
|----------------------------------| 
|----------------------------------| 
|----------------------------------| 
|----------------------------------| 
|------7---8---7-------6---7---6---| 
|-7-10---7---7---7-6-9---6---6---6-| 
  . .  . . . . . . . . . . . . . . 
  
|--------------------------|-------------------------| 
|--------------------------|-------------------------| 
|--------------------------|-------------------------| 
|--------------------------|-8-7-6---------6-5-------| 
|------7---8---7-------6---|-------7-6---------6-5-4-| 
|-7-10---7---7---7-6-7---7-|-----------7-6-----------| 
| . .  . . . . . . . . . . | . . . . . . . . . . . . | 
|--------------------------|-------------------------| 
|--------------------------|-------------------------| 
|--------------------------|-------------------------| 
|--------------------------|-8-7-6---------6-5-------| 
|------7---8---7-------6---|-------7-6---------6-5-4-| 
|-7-10---7---7---7-6-7---7-|-----------7-6-----------| 
  . .  . . . . . . . . . .   . . . . . . . . . . . . 

[Riff 6] 
|-------------------------|-------------------------| 
|-------------------------|-------------------------| 
|-------------------------|-------------------------| 
|-------------------------|---------------------^---| 
|-3---3---4-0-3---3---4-0-|-3---3---4-0-3---3---4~~-| 
|---4---4-------4---4-----|---4---4-------4---4-----| 
| . . . . . . . . . . . . | . . . . . . . . . .     | 
|-------------------------|-------------------------| 
|-------------------------|-------------------------| 
|-------------------------|-------------------------| 
|-------------------------|---------------------^---| 
|-3---3---4-0-3---3---4-0-|-3---3---4-0-3---3---4~~-| 
|---4---4-------4---4-----|---4---4-------4---4-----| 
  . . . . . . . . . . . .   . . . . . . . . . . 

[Riff 7 (x2)] 
||--------------------|-------------------|-------------------|- 
||o-------------------|-------------------|-------------------|- 
||--------------------|-------------------|-------------------|- 
||--------------------|-------------------|-------------------|- 
||o-8--7--0--5--4--5--|-6--7--6--7--8-----|-8--7--0--5--4--5--|- 
||--6--5--0--5--4--5--|-4--5--4--5--6--6~-|-6--5--0--5--4--5--|- 
|         .  .  .  .  |                   |          .  .  .  | 
||--------------------|-------------------|-------------------|- 
||o-------------------|-------------------|-------------------|- 
||--------------------|-------------------|-------------------|- 
||--------------------|-------------------|-------------------|- 
||o-8--7--0--5--4--5--|-6--7--6--7--8-----|-8--7--0--5--4--5--|- 
||--6--5--0--5--4--5--|-4--5--4--5--6--6~-|-6--5--0--5--4--5--|- 
          .  .  .  .                                 .  .  . 

[ending 1]                 [ending 2] 
 --------------------||  ---------------------------------| 
 -------------------o||  ---------------------------------| 
 --------------------||  ---------------------------------| 
 --------------------||  ---------------------------------| 
 -6--7-----7--8-----o||  ---------------------------------| 
 -4--5--4--5--6--6~~-||  -6tr8----5tr7----4tr6----3tr5----| 
                      |                                   | 
 --------------------||  ---------------------------------| 
 -------------------o||  ---------------------------------| 
 --------------------||  ---------------------------------| 
 --------------------||  ---------------------------------| 
 -6--7-----7--8-----o||  ---------------------------------| 
 -4--5--4--5--6--6~~-||  -6tr8----5tr7----4tr6----3tr5----| 

[Riff 8 (x2)] 
||----------------------------------|--------------------------------|- 
||o---------------------------------|--------------------------------|- 
||----------------------------------|--------------------------------|- 
||----------------------------------|--------------------------------|- 
||o------------------------------3--|--------------------------5--6--|- 
||--666655554444555544443333-3-4-3--|-666655554444555544443333-3--4--|- 
|                            . .    |                                | 
||----------------------------------|--------------------------------|- 
||o---------------------------------|--------------------------------|- 
||----------------------------------|--------------------------------|- 
||----------------------------------|--------------------------------|- 
||o------------------------------3--|--------------------------5--6--|- 
||--666655554444555544443333-3-4-3--|-666655554444555544443333-3--4--|- 
                             . . 

-|----------------------------|---------------------------------|- 
-|----------------------------|---------------------------------|- 
-|-------3-----6---------<5>--|---------------------------------|- 
-|---------4---------<5>------|---------------------------------|- 
-|-----4-----4---<5>----------|------------------------------3--|- 
-|-0-3------------------------|-666655554444555544443333-3-4-3--|- 
 | . . . . . . .              |                                 | 
-|----------------------------|---------------------------------|- 
-|----------------------------|---------------------------------|- 
-|-------3-----6---------<5>--|---------------------------------|- 
-|---------4---------<5>------|---------------------------------|- 
-|-----4-----4---<5>----------|------------------------------3--|- 
-|-0-3------------------------|-666655554444555544443333-3-4-3--|- 
   . . . . . . . 

-|--------------------------------|- 
-|--------------------------------|- 
-|--------------------------------|- 
-|--------------------------------|- 
-|--------------------------5--6--|- 
-|-666655554444555544443333-3--4--|- 
 |                                | 
-|--------------------------------|- 
-|--------------------------------|- 
-|--------------------------------|- 
-|--------------------------------|- 
-|--------------------------5--6--|- 
-|-666655554444555544443333-3--4--|- 

[ending 1] 
-|---------------------------------------|| 
-|--------------------------------------o|| 
-|---------------------------------------|| 
-|-----5/8\9-------8/12\9---------8-6----|| 
-|---5-------7------------7-----7-----5-o|| 
-|-5-----------8-5----------8-5----------|| 
 |                                        | 
-|---------------------------------------|| 
-|--------------------------------------o|| 
-|---------------------------------------|| 
-|-----5/8\9-------8/12\9---------8-6----|| 
-|---5-------7------------7-----7-----5-o|| 
-|-5-----------8-5----------8-5----------|| 

[ending 2] 
-|---------------------------------------------------------| 
-|---------------------------------------------------------| 
-|-----3/5\3-------6/8-------8\6---------5\3---------6-----| 
-|---------------5---------------5-----------------8-------| 
-|---4---------------------7-------4---4---------7-------4-| 
-|-5---------5-8-------8-7-----------5-------8-7-------5---| 
 |                                                         | 
-|---------------------------------------------------------| 
-|---------------------------------------------------------| 
-|-----3/5\3-------6/8-------8\6---------5\3---------6-----| 
-|---------------5---------------5-----------------8-------| 
-|---4---------------------7-------4---4---------7-------4-| 
-|-5---------5-8-------8-7-----------5-------8-7-------5---| 

[Last Riff] 
|---------------------|---------------------|--------| 
|---------------------|---------------------|--------| 
|---------------------|---------------------|--------| 
|-5-8-----------------|---------------------|--------| 
|-----7-6-5-0-4-3-0-5-|-4-3-3-4-0-5-4-0-3-4-|-3------| 
|-----7-6-5-0-6-5-0-5-|-4-3-5-6-0-5-4-0-3-4-|-3------| 
| . . . . . . . . . . | . . . . . . . . . . | .      | 
|---------------------|---------------------|--------| 
|---------------------|---------------------|--------| 
|---------------------|---------------------|--------| 
|---------------------|---------------------|--------| 
|-6-5---------4-3-----|-----3-4---------3-4-|-3------| 
|-6-5---------6-5-----|-----5-6---------3-4-|-3------| 
  . .         . .           . .         . .   . 

END OF SONG
Добавлено: 18.10.2013
Другие материалы по этой песне:

Страница создана 19.08.2013
http://primanota.ru/odious-mortem/debacle-by-cephalopod-chords.htm
Привет, Гость.
Предлагаем пройти революционный курс по гитаре.
Подарок от PrimaNota.Ru, забирай!