PrimaNota.ru - самый крупный в мире бесплатный архив песенных текстов, аккордов, табулатур и нот


Odett - Van Az A Pillanat - таба, видео

Регистрация Запомнить меня
Войти через:  Facebook Google Twitter Vk Yandex Mail.ru

Odett - Van Az A Pillanat - таба, видео

Печатать
Просмотров: 13
-------------------------------------------------------------------------------
                             Van az a pillanat - Odett (Hungarian singer)
-------------------------------------------------------------------------------
Tabbed by: ghoost21

Tuning: Standard E


VERSE

E                 D#-E
Van ez a pillanat ami külön halad
A
de mikor rádköszön tudod, hogy nem fáj
E                 D#-E
Van ez a gondolat ami ha elragad
A
a földről elemel
E                 D#-E
Van ez a nézés ami csak érzés
A
de átúsznád vele az éjszakát
C#
Van ez a lényed kit hajt a véred
A                       H
hogy elrabolja önmagát

    E        D#-E     A         [3x]

E|--------------------------------|
B|--------------------------------|
G|--99999999--88888888------------|
D|--99999999--99999999--77777777--|
A|--77777777--66666666--77777777--|
E|----------------------55555555--|

    C#                   A    H [1x]
E|------------------------------|
B|--5---------------------------|
G|--6---------------------------|
D|--6--------------------7----9-|
A|--4--------------------5----9-|
E|-----------------------5----7-|


CHORUS

F#          D
Ez nem az a tánc amiből nem kérsz
H
Ez nem az az öröm amitől nem félsz
F#          D
Ez nem az a perc ami megvár
H
Ez nem az a lány akiért nem kár

E|-----------------------------------------------------|
B|-----------------------------------------------------|
G|--11-11-11-11-11-11-11-11----------------------------|
D|--11-11-11-11-11-11-11-11---12-12-12-12-12-12-12-12--|
A|--9--9--9--9--9--9--9--9----12-12-12-12-12-12-12-12--|
E|----------------------------10-10-10-10-10-10-10-10--|


E|-------------------------------------|
B|-------------------------------------|
G|-------------------------------------|
D|--9-9-9-9-9-9-9-9--9-9-9-9-9-9-9-9---|
A|--9-9-9-9-9-9-9-9--9-9-9-9-9-9-9-9---|
E|--7-7-7-7-7-7-7-7--7-7-7-7-7-7-7-7---|


VERSE

Van ez a kérdés amit a féltés
titokban tart vagy elhibáz
Van ez a harcod amiben arcod
csak sírni lát
Van ez a védelem amitől féktelen
erővel nekivágsz
Van ez a szempár bármikor feltár
és erre vágysz

CHORUS [2x]

Ez nem az a tánc amiből nem kérsz
Ez nem az az öröm amitől nem félsz
Ez nem az a perc ami megvár
Ez nem az a lány akiért nem kár

INTERLUDE

    F#         D         H
E|------------------------------|
B|------------------------------|
G|-------------7----------------|
D|--4----------7---------9------|
A|--4----------5---------9------|
E|--2--------------------7------|

Nem kérsz
Nem félsz
Megvár
Nem kár

CHORUS [2x]

Ez nem az a tánc amiből nem kérsz
Ez nem az az öröm amitől nem félsz
Ez nem az a perc ami megvár
Ez nem az a lány akiért nem kár


ENDING

F#

E|-------|
B|-------|
G|-------|
D|--4----|
A|--4----|
E|--2----|
Добавлено: 20.06.2016
Другие материалы по этой песне:
  • Аккорды и текст

Страница создана 20.06.2016
http://primanota.ru/odett/van-az-a-pillanat-chords.htm
Привет, Гость.
Предлагаем пройти революционный курс по гитаре.
Подарок от PrimaNota.Ru, забирай!