PrimaNota.ru - самый крупный в мире бесплатный архив песенных текстов, аккордов, табулатур и нот


Odds - Heterosexual Man - текст песни, таба, видео

Регистрация Запомнить меня
Войти через:  Facebook Google Twitter Vk Yandex Mail.ru

Odds - Heterosexual Man - текст песни, таба, видео

Печатать
Просмотров: 154
The Odds - Heterosexual Man
Transcribed by:
Rob Stevenson - XIIth House
www.xiithhouse.com

This file is all my own work. I know that there are some errors in here and
am desperately looking for help in correcting them. If you can give me some
suggestions please do.

Mail me at rob@sentai.com


Intro w/tremolo
|-5----------------|
|-5-------5--------|
|-7--------7-------|
|-7---------7-5-4^-|
|-5----------------|
|------------------|

Bassline
|------------------|
|------------------|
|------------------|
|------------------|
|-5-0-5-4-3-0-0-3--|
|------------------|

Verse riff A
|---------------------------------------------------|
|---------------------------------------------------|
|-5-5-5-5-7-7---5-5-5-5-7-7---5-5-5-5-7-7---5-----7-|
|-5-5-5-5-7-7---5-5-5-5-7-7---5-5-5-5-7-7---5-5-5-7-|
|-3-3-0-3-5-5---3-3-0-3-5-5---3-3-0-3-5-5---3-5-5-5-|
|---------------------------------------------3-3---|

Verse riff B
"I'm a heterosexual man..."
|----------------|
|----------------|
|-5-----7--------|
|-5-5-5-7--------|
|-3-5-5-5--------|
|---3-3----------|

Chorus
|-----------------------------------------------------------------|
|-----------------------------------------------------------------|
|-7-7-7-7-7-7-7-7-5-5-5-5-5-5-5-5-7-7-7-7-5-5-5-5-----------------|
|-7-7-7-7-7-7-7-7-5-5-5-5-5-5-5-5-7-7-7-7-5-5-5-5-5-5-5-5-5-5-5-5-|
|-5-5-5-5-5-5-5-5-3-3-3-3-3-3-3-3-5-5-5-5-3-3-3-3-5-5-5-5-5-5-5-5-|
|-------------------------------------------------3-3-3-3-3-3-3-3-|

|------------------------------------------|
|------------------------------------------|
|-7-7-7-7-7-7-7-7-5-5-5-5-7-7-7-7-5-5-5-5--|
|-7-7-7-7-7-7-7-7-5-5-5-5-7-7-7-7-5-5-5-5--|
|-5-5-5-5-5-5-5-5-3-3-3-3-5-5-5-5-3-3-3-3--|
|------------------------------------------|

Guitar Interlude
|--------------------------|
|-6-5-5-3-1-5--6-5-5-6-5-3-|
|-5-5-5-2-0-5--5-5-5-5-5-2-|
|--------------------------|
|--------------------------|
|--------------------------|

Bridge
|-0-----------------|
|-0-----------------|
|-1-----------------|
|-2-----------------|
|-2-----------------|
|-0-----------------|

I do a little noodling in the open e pentatonic after the E chord.

For all breaks in the middle of the verse and before chorus i just hold out
a D chord with a little tremolo.

     
Добавлено: 13.07.2013
Вам также может быть интересно:
Другие материалы по этой песне:
  • Аккорды и текст

Страница создана 07.04.2012
http://primanota.ru/odds/heterosexual-man-chords.htm
Привет, Гость.
Предлагаем пройти революционный курс по гитаре.
Подарок от PrimaNota.Ru, забирай!