PrimaNota.ru - самый крупный в мире бесплатный архив песенных текстов, аккордов, табулатур и нот


October Crisis - The Conformist - таба, видео

Регистрация Запомнить меня
Войти через:  Facebook Google Twitter Vk Yandex Mail.ru

October Crisis - The Conformist - таба, видео

Печатать
Просмотров: 54
*##-------------------------OFFICIAL TAB----------------------------------##*
*##------------------------OCTOBER CRISIS---------------------------------##*
*##------------------------THE CONFORMIST---------------------------------##*


INTRO
 4/4
  Gtr I
   E  E X X X X X  X  X X X X X X  X  X
|---------------------------------------|
|---------------------------------------|
|---------------------------------------|
|---------------------------------------|
|---------------------------------------|
|-12p10-0-0-0-0-0-12p10-0-0-0-0-0-12h13-|


   E  E X X X X X  X  X X X X X X  X  X
|----------------------------------------|
|----------------------------------------|
|----------------------------------------|
|----------------------------------------|
|----------------------------------------|
|-12p10-0-0-0-0-0-12p10-0-0-0-0-0-12h13--|


   E  E X X X X X  X  X X X X X X  X  X
|---------------------------------------|
|---------------------------------------|
|---------------------------------------|
|---------------------------------------|
|---------------------------------------|
|-12p10-0-0-0-0-0-12p10-0-0-0-0-0-12h13-|


  E E E E E E E E E E    E  E X X X X X  X  X X X X X X  X  X
|---------------------|---------------------------------------|
|---------------------|---------------------------------------|
|---------------------|---------------------------------------|
|---------------6-6-6-|---------------------------------------|
|---------6-6-6-------|---------------------------------------|
|-3-3-3-3-------------|-12p10-0-0-0-0-0-12p10-0-0-0-0-0-12h13-|


   E  E X X X X X  X  X X X X X X  X  X
|---------------------------------------|
|---------------------------------------|
|---------------------------------------|
|---------------------------------------|
|---------------------------------------|
|-12p10-0-0-0-0-0-12p10-0-0-0-0-0-12h13-|


   E  E X X X X X  X  X X X X X X  X  X
|-----------------------------------------|
|-----------------------------------------|
|-----------------------------------------|
|-----------------------------------------|
|-----------------------------------------|
|-12p10-0-0-0-0-0-12p10-0-0-0-0-0-12h13---|


                                          TPTPTPTP
   E  E X X X X X  X  X X X X X X  X  X   E E E E
|---------------------------------------|----------||
|---------------------------------------|---------o||
|---------------------------------------|----------||
|---------------------------------------|----------||
|---------------------------------------|---------o||
|-12p10-0-0-0-0-0-12p10-0-0-0-0-0-12h13-|-3-1-3-4--||


  Gtr II
   E  E E E E E E  E  E E E E E E  E  E
|---------------------------------------|
|---------------------------------------|
|---------------------------------------|
|---------------------------------------|
|---------------------------------------|
|-15p13-0-0-0-0-0-15p13-0-0-0-0-0-15h16-|


   E  E E E E E E  E  E E E E E E  E  E
|-----------------------------------------|
|-----------------------------------------|
|-----------------------------------------|
|-----------------------------------------|
|-----------------------------------------|
|-15p13-0-0-0-0-0-15p13-0-0-0-0-0-15h16---|


   E  E E E E E E  E  E E E E E E  E  E   E E E E E E E E E E
|---------------------------------------|---------------------|
|---------------------------------------|---------------------|
|---------------------------------------|---------------------|
|---------------------------------------|---------------8-8-8-|
|---------------------------------------|---------8-8-8-------|
|-15p13-0-0-0-0-0-15p13-0-0-0-0-0-15h16-|-5-5-5-5-------------|


   E  E E E E E E  E  E E E E E E  E  E
|---------------------------------------|
|---------------------------------------|
|---------------------------------------|
|---------------------------------------|
|---------------------------------------|
|-15p13-0-0-0-0-0-15p13-0-0-0-0-0-15h16-|


   E  E E E E E E  E  E E E E E E  E  E
|---------------------------------------|
|---------------------------------------|
|---------------------------------------|
|---------------------------------------|
|---------------------------------------|
|-15p13-0-0-0-0-0-15p13-0-0-0-0-0-15h16-|


   E  E E E E E E  E  E E E E E E  E  E
|---------------------------------------|
|---------------------------------------|
|---------------------------------------|
|---------------------------------------|
|---------------------------------------|
|-15p13-0-0-0-0-0-15p13-0-0-0-0-0-15h16-|

                   VERSE
  Gtrs I, II
  TPTPTPTPTPTPTPTP   
  E E E E E E E E     E E  E E E E E E E E E E E E E E E E E E E E E E E E
|-----------------||-------------------------------------------------------|
|-----------------||o------------------------------------------------------|
|-----------------||-------------------------------------------------------|
|-----------------||----7\---------------------------5-5-5-5-5S8-8-8-8-8---|
|-----------------||o---5\---------------------------3-3-3-3-3S6-6-6-6-6---|
|-3-1-3-4-3-1-3-4-||--0----0-0-0-0-0-0-0-0-0-0-0-0-0---------------------0-|


  E  E E E E E E E E E E E E E   E E E E E E E E E E
|------------------------------|----------------------||
|------------------------------|---------------------o||
|------------------------------|----------------------||
|-7\---------------------------|-5-5-5-5-5-0-1-1-1-1--||
|-5\---------------------------|-3-3-3-3-3-0-1-1-1-1-o||
|----0-0-0-0-0-0-0-0-0-0-0-0-0-|-----------0-1-1-1-1--||

RIFF1
  Gtr I
  E  E E E E E E E E E E E E   E E E E E E   E E E E E E E E E E E E E
|----------------------------|-------------|---------------------------|
|----------------------------|-------------|---------------------------|
|----------------------------|-------------|---------------------------|
|-0--------------------------|-6-5-0-1-----|---------------------------|
|-0--------0-1h4-------0-3h6-|-6-5-0-1-0-0-|---------0-1h4-------0-3h6-|
|-0--0-1h4-------0-3h6-------|-6-5-0-1-0-0-|-0-0-1h4-------0-3h6-------|


  E E E E   E E E E E E E E E E E E E   E E E E    E E   E E E E E E
|---------|---------------------------|----------------|-------------|
|---------|---------------------------|----------------|-------------|
|---------|---------------------------|----------------|-------------|
|---6---6-|---------------------------|-6-5-0-1----0-0-|-------0-3-5-|
|-5---5---|---------0-1h4-------0-3h6-|-6-5-0-1----0-0-|-0-3-5-------|
|---------|-0-0-1h4-------0-3h6-------|-6-5-0-1----0-0-|-------------|


  E E E
|-------|
|-------|
|-------|
|-------|
|-0-3-5-|
|-------|


  Gtr II
  W                E E E E E E   W
|----------------|-------------|------|
|----------------|-------------|------|
|----------------|-------------|------|
|----------------|-6-5-0-1-----|------|
|----------------|-6-5-0-1-0-0-|------|
|----------------|-6-5-0-1-0-0-|------|


  E E E E   W               E E E E    E E   W
|---------|---------------|----------------|------|
|---------|---------------|----------------|------|
|---------|---------------|----------------|------|
|-0-6-0-6-|---------------|-6-5-0-1----0-0-|------|
|-0-6-0-6-|---------------|-6-5-0-1----0-0-|------|
|-0-6-0-6-|---------------|-6-5-0-1----0-0-|------|


PRECHORUS
    Gtrs I, II
    E E E E E E  E E E E E  E   E E E E E E  E E E E E E  
||----------------------------|---------------------------||
||o---------------------------|--------------------------o||
||----------------------------|---------------------------||
||----------------------------|---------------------------||
||o-------7--------8-------10-|-------7--------8-------7-o||
||--0-0-8---0-0-10---0-0-7----|-0-0-8---0-0-10---0-0-7----||


CHORUS
    Gtr I
    E E E E E E E E E E E E E E E
||--------------------------------|
||o-------------------------------|
||--------------------------------|
||--------------------------------|
||o-5---5h7p5h8p5---5---5h7p5h8p5-|
||----0-----------0---0-----------|


  E E E E  E E  E E   E  E E  E  E  E  E  E
|-------------------|-----------------------|
|-------------------|-----------------------|
|-------------------|-----------------------|
|-------------------|-----------------------|
|---8---8h10p8h12p8-|---10---10h12p10h13p10-|
|-0---0-------------|-0----0----------------|


  E E E E E E E E E E E E E E E E   E E E  E E  E E    E  E  E  E  3x
|---------------------------------|-----------------|--------------||
|---------------------------------|-----------------|-------------o||
|---------------------------------|-----------------|--------------||
|---------------------------------|-----------------|----12-10-----||
|-5---5h7p5h8p5---5---5h7p5h8p5---|-8---8h10p8h12p8-|-10-------12-o||
|---0-----------0---0-----------0-|---0-------------|--------------||


    Gtr II
    E       E E          E E         E E E E
||---------------------|-----------|-------------||
||o--------------------|-----------|-------------||
||---------------------|-----------|-------------||
||--0---------0--------|-0-3-------|---3-0-1-----||
||o-0---------0--------|-0-3-------|---1-0-1-----||
||--0-------0-0--------|-0-3-------|-0---0-1-----||


  E E      E E          E E         E E E E   3x
|---------------------|-----------|-----------||
|---------------------|-----------|----------o||
|---------------------|-----------|-----------||
|---0--------0--------|-0-3-------|---3-0-1---||
|---0--------0--------|-0-3-------|---1-0-1--o||
|-0-0------0-0--------|-0-3-------|-0---0-1---||


OUTRO
    Gtr I
     E  E X X X X X E  E  X X X X X E  E                                             
||---------------------------------------|
||o--------------------------------------|
||---------------------------------------|
||---------------------------------------|
||o--------------------------------------|
||--12p10-0-0-0-0-0-12p10-0-0-0-0-0-12h13|

    E  E X X X X X  E  E X X X X X  E  E
||---------------------------------------|
||o--------------------------------------|
||---------------------------------------|
||---------------------------------------|
||o--------------------------------------|
||--12p10-0-0-0-0-0-12p10-0-0-0-0-0-12h13|

   E  E X X X X X  X  X X X X X X  X  X   E E E E E E E E E E  4x
|---------------------------------------|----------------------||             
|---------------------------------------|---------------------o||
|---------------------------------------|----------------------|| 
|---------------------------------------|---------------6-6-6--||
|---------------------------------------|---------6-6-6-------o||
|-12p10-0-0-0-0-0-12p10-0-0-0-0-0-12h13-|-3-3-3-3--------------||

Gtr II
   E  E E E E E E  E  E E E E E E  E  E
|---------------------------------------|
|---------------------------------------|
|---------------------------------------|
|---------------------------------------|
|---------------------------------------|
|-15p13-0-0-0-0-0-15p13-0-0-0-0-0-15h16-|


   E  E E E E E E  E  E E E E E E  E  E
|-----------------------------------------|
|-----------------------------------------|
|-----------------------------------------|
|-----------------------------------------|
|-----------------------------------------|
|-15p13-0-0-0-0-0-15p13-0-0-0-0-0-15h16---|


   E  E E E E E E  E  E E E E E E  E  E   E E E E E E E E E E
|---------------------------------------|----------------------||
|---------------------------------------|---------------------o||
|---------------------------------------|----------------------||
|---------------------------------------|---------------8-8-8--||
|---------------------------------------|---------8-8-8-------o||
|-15p13-0-0-0-0-0-15p13-0-0-0-0-0-15h16-|-5-5-5-5--------------||


  Gtrs I, II
  TPTPTPTPTPTPTPTP
  E E E E E E E E
|-----------------|
|-----------------|
|-----------------|
|-----------------|
|-----------------|
|-3-1-3-4-3-1-3-4-|

RIFF 2
    Gtr I
                                                    TPTPTP
    E  E E E E E E  E  E E E E E E  E  E E E E E E  E E E  4x
||---------------------------------------------------------||
||o-------------------------------------------------------o||
||---------------------------------------------------------||
||-----------6-0-6-----------6-0-6-----------6-0-6---------||
||o----------6-0-6-----------6-0-6-----------6-0-6--5-6---o||
||--0--0-0-0-6-0-6--0--0-0-0-6-0-6--0--0-0-0-6-0-6------8--||


  Gtr II
  Wx2      E  E E E E E E  E  E E E E E E  E  E E E E E E  E E E E
|------||-----------------------------------------------------------||
|------||o---------------------------------------------------------o||
|------||-----------8---8-----------8---8-----------8---8----7-7-5--||
|------||-----------6---6-----------6---6-----------6---6----5-6-3--||
|------||o---------------------------------------------------------o||
|------||--0--0-0-0---0----0--0-0-0---0----0--0-0-0---0----0--------||


RIFF 3
    Gtrs I, II
    E  E E E E E E  E  E E E E E E  E  E E E E E E  E  E E E E E E
||----------------------------------------------------------------|
||o---------------------------------------------------------------|
||----------------------------------------------------------------|
||----------------------------------------------------------------|
||o----------8---8-----------8---8-----------7---7-----------7---7|
||--0--0-0-0---0----0--0-0-0---0----0--0-0-0---0----0--0-0-0---0--|


  E  E E E E E E  E  E E E E E E  E  E E E E E E  E  E E E E E E
|-----------------------------------------------------------------||
|----------------------------------------------------------------o||
|-----------------------------------------------------------------||
|-----------------------------------------------------------------||
|----------------------------------------------------------------o||
|-0--0-0-0-6-0-6--0--0-0-0-6-0-6--0--0-0-0-5-0-5--0--0-0-0-5-0-5--||




ORDER:

INTRO
VERSE
RIFF1
PRECHORUS
CHORUS
INTRO
VERSE
PRECHORUS
CHORUS
OUTRO
RIFF2
RIFF3
INTRO

DOWNLOAD OBSTACLES FOR FREE AT
www.octobercrisis.bandcamp.com
Добавлено: 06.09.2013
Другие материалы по этой песне:
  • Аккорды и текст

Страница создана 06.09.2013
http://primanota.ru/october-crisis/the-conformist-chords.htm
Привет, Гость.
Предлагаем пройти революционный курс по гитаре.
Подарок от PrimaNota.Ru, забирай!