PrimaNota.ru - самый крупный в мире бесплатный архив песенных текстов, аккордов, табулатур и нот


October Crisis - Jumper - таба, видео

Регистрация Запомнить меня
Войти через:  Facebook Google Twitter Vk Yandex Mail.ru

October Crisis - Jumper - таба, видео

Печатать
Просмотров: 67
RIFF1
   E       E    E E  E   3X E E E E E E E E E E E E E E E E E
|------------------------||-----------------------------------|
|-----------------------o||-----------------------------------|
|------------------------||-------------------3-3-3-3-3-3-3-3-|
|-12-------7----0h3--3---||-------------------1-1-1-1-1-1-1-1-|
|-12-------7----0h3--3--o||-0-1-1-1-1-1-1-1-1-1-1-1-1-1-1-1-1-|
|-12-------7----0h3--3---||-0-1-1-1-1-1-1-1-1-1-1-1-1-1-1-1-1-|


RIFF2
 
  E  E    E  E  E  E   E  E   E  E   E    E E  E    E  E E E
|------------------------------------------------------------||
|------------------------------------------------------------||
|------------------------------------------------------------||
|------------------------------------------------------------||
|-10h12--12-12--10h12--12-12--10h12--12---5h7-7-7---3--0-1-1-||
|-10h12--12-12--10h12--12-12--10h12--12---5h7-7-7---3--0-1-1-||

RIFF3

  E E E E  E  E  E  E   E   E
|----------------------------------||
|----------------------------------||
|----------------------------------||
|----------------------------------||
|---------10h12-10h12---0--15\-----||
|-0-0-0-0-10h12-10h12---0--15\-----||

RIFF4
|-----------------------------||
|-----------------------------||
|-----------------------------||
|-----------0h1-1-------------||
|----6-6----0h1-1-------------||
|----6-6----0h1-1-------------||


SOLO
   E  E   E  E   E  E   E  E    E  E  E   E  E  E  E   E   E  E
|---------------------------------------------------------------|
|---------------------------------------------------------------|
|----------------------------------------10---------------------|
|-10h12--12-12--10h12--12-12---10h12-12-----12-10---------------|
|-------------------------------------------------12--10--12-12-|
|---------------------------------------------------------------|


   E     E  E  E  E  E  E  E  E
|-10-----------------------------|
|-10----10h13p10h13p10h13p10h13--|
|-12b14--------------------------|
|--------------------------------|
|--------------------------------|
|--------------------------------|


   E  E  E  E  E  E  E  E   E      E  E
|-10h13p10h13p10h13p10h13--13b15--13-13-|
|---------------------------------------|
|---------------------------------------|
|---------------------------------------|
|---------------------------------------|
|---------------------------------------|


   E  E  E  E  E  E  E  E  E  E  E  E  E  E  E   E  E  E   E
|-13-12-10--------------------------------------12-12-12--13-|
|----------13-12-10-----------------------------12-12-12--13-|
|-------------------12-11-10----------10h12-----12-12-12--13-|
|----------------------------12-10h12-------12---------------|
|------------------------------------------------------------|
|------------------------------------------------------------|


   E       E       E       E
|-10------13------15------17----||
|-10------13------15------17----||
|-12b14---15b17---17b19---19b21-||
|-------------------------------||
|-------------------------------||
|-------------------------------||

ORDER
RIFF1
RIFF2-4x
RIFF3-7x
RIFF1
RIFF2-4x
RIFF3-9x
RIFF1
SOLO/RIFF2
RIFF1
Добавлено: 08.07.2013
Другие материалы по этой песне:
  • Аккорды и текст

Страница создана 08.07.2013
http://primanota.ru/october-crisis/jumper-chords.htm
Привет, Гость.
Предлагаем пройти революционный курс по гитаре.
Подарок от PrimaNota.Ru, забирай!