PrimaNota.ru - самый крупный в мире бесплатный архив песенных текстов, аккордов, табулатур и нот


October Crisis - Closure - таба, видео

Регистрация Запомнить меня
Войти через:  Facebook Google Twitter Vk Yandex Mail.ru

October Crisis - Closure - таба, видео

Печатать
Просмотров: 52
*##--------------------------OFFICIAL TAB---------------------------------##*
*##-------------------------OCTOBER CRISIS--------------------------------##*
*##-----------------------------CLOSURE-----------------------------------##*


Gtr I (D A D G B E) - 'Lead'
Gtr II (D A D G B E) - 'Rhythem'

RIFF 1

 4/4
  Gtr I
  TPTPTPTPTPTPTPTP  TPTPTPTPTPTPTPTP  TPTPTPTPTPTPTPTP  TP TPTPTP TP TP TP
  E E E E E E E E   E E E E E E E E   E E E E E E E E   E  E E E  E  E  E
|-----------------|-----------------|-----------------|-------------------|
|-----------------|-----------------|-----------------|-------------------|
|-----------------|-----------------|-----------------|-------------------|
|-----7-5-8-7-5-7-|-----7-5-----8-7-|-----7-5-8-7-5-7-|-7-10-8-7-12S14-15-|
|---8-------------|---8-----8-7-----|---8-------------|-------------------|
|-0---------------|-0---------------|-0---------------|-------------------|


   TP
   E
|----|
|----|
|----|
|----|
|-14-|
|----|


  Gtr II
  E E E  E E E  E E E  E E E  E E E  E E E  E E E   E E E  E E E
|-------------------------------------------------|--------------|
|-------------------------------------------------|--------------|
|-------------------------------------------------|--------------|
|-------------------------------------------------|--------------|
|-------------------------------------------------|--------------|
|-0-0-0--0-0-0--0-0-0--0-0-0--0-0-0--0-0-0--0-0-0-|-0-0-0--0-0-0-|


  E E E  E E E  E E E  E E E  E E E   E E E  E E E  E E E  E E E
|-----------------------------------|----------------------------|
|-----------------------------------|----------------------------|
|-----------------------------------|----------------------------|
|-----------------------------------|----------------------------|
|-----------------------------------|----------------------------|
|-0-0-0--0-0-0--0-0-0--0-0-0--0-0-0-|-0-0-0--0-0-0--0-0-0--0-0-0-|


  E E E  E E E     E E E  E E E  E E E  E E E  E E E  E E E  E E E
|---------------||-------------------------------------------------|
|--------------o||-------------------------------------------------|
|---------------||-------------------------------------------------|
|---------------||-------------------------------------------------|
|--------------o||-------------------------------------------------|
|-0-0-0--0-0-0--||-3-3-3--3-3-3--3-3-3--3-3-3--7-7-7--7-7-7--5-5-5-|


  E E E    E E E  E E E  E E E  E E E  E E E  E E E   E  E  E   E  E  E
|-------||--------------------------------------------------------------|
|-------||--------------------------------------------------------------|
|-------||--------------------------------------------------------------|
|-------||--------------------------------------------------------------|
|-------||--------------------------------------------------------------|
|-5-5-5-||-3-3-3--3-3-3--3-3-3--3-3-3--7-7-7--7-7-7--10-10-10--10-10-10-|


RIFF 2
    Gtrs I, II
                                         TPTP TPTP
    E E  E  E E  E E   E E  E  E E  E E  E E  E E   E E  E
||------------------------------------------------|---------|
||o-----------------------------------------------|---------|
||------------------------------------------------|---------|
||------------------------------------------------|---------|
||o----------------------------------------4----4-|---------|
||--0-0--0--0-0--0-0---0-0--0--0-0--0-0--1----1---|-0-0--0--|


  E E  E E   E E  E  E E  E E  E E E  E E E E  E E     E
|---------------------------------------------------||----||----|
|--------------------------------------------------o||----||----|
|---------------------------------------------------||----||----|
|---------------------------------------------------||-0--||----|
|---------------------------------------6h9p6------o||-0--||----|
|-0-0--0-0---0-0--0--0-0--0-0--1h4s7h10-------10p7--||-0--||----|


LICK 1
  Gtr I
  E E E E E E E
|---------------|
|---------------|
|---------5h8-8-|
|-----4h7-----7-|
|-3h6-----------|
|---------------|


PRECHORUS- STRUM CHORDS ACCORDING TO SONG

            PM|     PM|     PM|     PM|
  E    E    E E  E  E E  E  E E  E  E E  E   E
|----|----|--------------------------------|----|
|----|----|--------------------------------|----|
|----|----|--------------------------------|----|
|-8--|-7--|------7-------7-------7-------7-|-8--|
|-5--|-3--|------0-------0-------0-------0-|-8--|
|-5--|-3--|-0-0--0--0-0--0--0-0--0--0-0--0-|-8--|


  E  E E E  E  E E E  E  E E E  E E E E   E  E E E  E  E E E
|---------------------------------------|---------------------|
|---------------------------------------|---------------------|
|---------------------------------------|---------------------|
|------7---------7---------7----8-7-5-7-|------7---------7----|
|-5--8---8--5--8---8--5--8---8----------|-0--8---8--0--8---8--|
|-5---------5---------5-----------------|-0---------0---------|


  E  E E E  E  E E E  E E E E
|-----------------------------|
|-----------------------------|
|-----------------------------|
|------7---------7---10-8-7-8-|
|-0--8---8--0--8---8----------|
|-0---------0-----------------|


CHORUS

    Gtr II
    E E E E E E E E E E E E
||--------------------------|
||o-------------------------|
||--------------------------|
||--------------------------|
||o-------------------------|
||--0-0-0-0-0-0-0-0-0-0-0-0-|


   E  E  E  E  E  E  E  E  E  E  E  E   E E E E E E E E E
|-------------------------------------|------------------|
|-------------------------------------|------------------|
|-------------------------------------|------------------|
|-10-10-10-10-10-10-10-10-10-10-10-10-|-8-8-8-8-8-8-8-8-8|
|-10-10-10-10-10-10-10-10-10-10-10-10-|-8-8-8-8-8-8-8-8-8|
|-10-10-10-10-10-10-10-10-10-10-10-10-|-8-8-8-8-8-8-8-8-8|


  E E E   E E E E E E E E E E E E E E E   E E E E E E E E E E E E E E E
|-------|-------------------------------|--------------------------------||
|-------|-------------------------------|-------------------------------o||
|-------|-----------------7-7-7-7-7-7-7-|-----------------7-7-7-7-7-7-7--|| 
|-8-8-8-|-----------------6-6-6-6-6-6-6-|-----------------6-6-6-6-6-6-6--||
|-8-8-8-|-----------------5-5-5-5-5-5-5-|-----------------5-5-5-5-5-5-5-o||
|-8-8-8-|-0-0-0-0-0-0-0-0---------------|-0-0-0-0-0-0-0-0----------------||


    Gtr I
     E  E  E  E  E  E  E  E    E  E  E  E  E  E  E  E
||--------------------------|-------------------------|
||o-------------------------|-------------------------|
||--------------12----------|-------------13----------|
||--12-13-12-13----13-12-13-|-12-13-12-13----13-12-13-|
||o-------------------------|-------------------------|
||--------------------------|-------------------------|


   E  E  E  E  E  E  E  E    E  E  E  E  E  E
|-------------------------|--------------------|
|-------------------------|--------------------|
|-------------15----------|--------------------|
|-12-13-12-13----13-12-13-|-12-13-12h13p12s10--|
|-------------------------|--------------------|
|-------------------------|--------------------|


   E  E  E  E  E  E  E  E  E  E  E  E  E  E
|-------------------------------------------|
|-------------------------------------------|
|-------------------------------------------|
|-12-13-12-10-12-10----10-------------------|
|-------------------13----13-12-10-12-13-12-|
|-------------------------------------------|


  E  E  E  E E  E  E  E  E E E E E E E E
|----------------------------------------|
|----------------------------------------|
|----------------------------------------|
|----------------------------------------|
|-12h13p12s10h12p10s8h10p8s7h8p7s5h7p5s3-|
|----------------------------------------|

   E  E  E  E  E  E E  E E E E E E E E E
|-----------------------------------------||
|----------------------------------------o||
|-----------------------------------------||
|-12-13-12s10-12-10s8-10-8s7-8-7s5-7-5s3--||
|-12h13p12s10h12p10s8h10p8s7h8p7s5h7p5s3-o||
|-----------------------------------------||


RIFF 3

  E E E E E E E E E E E   E E E E E E E E E E E E
|-----------------------|-------------------------||
|-----------------------|-------------------------||
|-----------------------|-------------------------||
|-----------------------|-------------------------||
|-3-3-3-3-3-3-3-3-3-3-3-|-8-8-8-8-8-8-8-8-8-8-8-8-||
|-3-3-3-3-3-3-3-3-3-3-3-|-8-8-8-8-8-8-8-8-8-8-8-8-||


BREAKDOWN
                        TPTPTPTP              TPTPTPTPTPTPTPTP
  E E E E   E E E E E E E E E E   E E E E   E E E E E E E E E
|-------------------------------|-----------------------------|
|-------------------------------|-----------------------------|
|-------------------------------|-----------------------------|
|-------------------------------|-----------------------------|
|-----------------------8---7---|---------------7---7---8---8-|
|-0-0-0-0---0-0-0-0-0-0---5---3-|-0-0-0-0---0-3---3---5---5---|


SOLO

  Gtr I
  E  E  E E  E  E  E  E    E  E  E   E  E  E E
|-----------------------|----------------------|
|-----------13-11-10----|-10-------------------|
|------10-9----------12-|----12-10--10h12p10S9-|
|-8s12------------------|----------------------|
|-----------------------|----------------------|
|-----------------------|----------------------|


                                     ~~~~~~~~
  E  E E  E E  E  E  E    E E E  E   E     E
|----------------------|---------------------|
|----------------------|---------------------|
|-9h10p9----9----------|---------------------|
|--------12---12-10-12-|---------------------|
|----------------------|-10p8-8-10S[12]------|
|----------------------|------------------12-|


   E  E E E  E E   E E E  E E  E   E  E  E  E  E  E    E  E  E  E  E
|----------------|----------------------------------|----------------|
|----------------|----------------------------------|----------------|
|----------------|------------10--------------------|----------------|
|-10S=8-8-8S=7-7-|-------10-7--------------14-15-12-|-12h14p12s10-12-|
|----------------|----------------------------------|----------------|
|-10S=8-8-8S=7-7-|-8-8-8----------10-10-10----------|----------------|


ORDER:
RIFF1
RIFF2
LICK1
PRECHORUS
CHORUS
RIFF3
RIFF1
PRECHORUS
CHORUS
RIFF3
BREAKDOWN
SOLO
CHORUS
RIFF3


DOWNLOAD OBSTACLES FOR FREE AT www.octobercrisis.bandcamp.com
Добавлено: 21.11.2013
Другие материалы по этой песне:
  • Аккорды и текст

Страница создана 21.11.2013
http://primanota.ru/october-crisis/closure-chords.htm
Привет, Гость.
Предлагаем пройти революционный курс по гитаре.
Подарок от PrimaNota.Ru, забирай!