PrimaNota.ru - самый крупный в мире бесплатный архив песенных текстов, аккордов, табулатур и нот


Oconnor - Yo Sé Que Sabes - таба, видео

Регистрация Запомнить меня
Войти через:  Facebook Google Twitter Vk Yandex Mail.ru

Oconnor - Yo Sé Que Sabes - таба, видео

Печатать
Просмотров: 63
Puede llegar a estar mal la letra. Si sacan el solo completo mandenlo.
Acordes de 5ta.

Intro: x2
   LAm        SOL        FA         SOL
|--------------------------------------------|
|--------------------------------------------|
|--------------------------------------------|
|--7-7--------5-5--------3-3--------5-5---5--|
|--7-7-/7-0-3-5-5-/7-0-3-3-3-/7-0-3-5-5---5--|
|--5-5--------3-3--------1-1--------3-3---3--|

Intro x3
Ya estoy cansado de seguir
donando sangre por ahí
Cansado de esperar
que haya un futuro para mi

  LAm      SOL       MIm FA
|--------------------------|
|--------------------------|
|--------------------------|
|-7--------5-----------2-3-|
|-7-/7-5-3-5-/5-3-2----2-3-|
|-5--------3-----------0-1-|
             Yo sé que sabes

Intro

Intro x3
Busque la forma de enfrentar
LA maquinaria judiacial
Que me empujó hacia el mal
que mi abuelo puso hasta aquí

  LAm      SOL       MIm FA
|--------------------------|
|--------------------------|
|--------------------------|
|-7--------5-----------2-3-|
|-7-/7-5-3-5-/5-3-2----2-3-|
|-5--------3-----------0-1-|
             Yo sé que sabes

LAm      SOL
Que aquí    se vende
FA          SOL            LAm
  la esperanza y el porvenir,
LAm        DO          FA    SOL
   pero no lo podes comprar

LAm     SOL
Que ahí    se vende
FA          SOL            LAm
  la esperanza y el porvenir,
LAm        DO          RE
   pero no lo podes comprar

Intro

Intro x4
Porque me tengo que mentir?
Mil sueños tengo en mi pais
No quiero renunciar
pero esto nunca cambiará

  LAm      SOL       MIm FA
|--------------------------|
|--------------------------|
|--------------------------|
|-7--------5-----------2-3-|
|-7-/7-5-3-5-/5-3-2----2-3-|
|-5--------3-----------0-1-|
             Yo sé que sabes

LAm      SOL
Que aquí    se vende
FA          SOL            LAm
  la esperanza y el porvenir,
LAm        DO          FA    SOL
   pero no lo podes comprar

LAm      SOL
He aquí,    se vende
FA          SOL            LAm
  la esperanza y el porvenir,
LAm        DO        MIm FA RE     MIm FA RE     MIm FA RE     MIm FA RE
|-------------------------------------------------------------------------
|-------------------------------------------------------------------------
|----------5----------------7-------------7-------------7-------------7---
|-7--------5-----------2--3-7---------2-3-7---------2-3-7---------2-3-7---
|-7--------3-----------2--3-5---------2-3-5---------2-3-5---------2-3-5---
|-5--------------------0--1-----------0-1-----------0-1-----------0-1-----
   pero no lo podes compraaaaaaaaaaaaaar      a buscaaaaaaaaaaaaaaar
                                No te vaaaaaaaaaaaaaa     Donde estaaaaaaaaaaa aha!

Solo:
   LAm      SOL      FA       SOL      LAm      SOL      FA       SOL
|---------------------------------------------------------------------|
|---------------------------------------------------------------------|
|---------------------------------------------------------------------|
|---------------------------------------------------------------------|
|----/7-5-3---/5-3-2----------5~---------/7-5-3---/5-3-2-3~------/5~--|
|--5--------3--------1~----------------5--------3---------------------|
|                                                                     |
|---------------------------------------------------------------------|
|---------------------------------------------------------------------|
|----/9-7-5---/7-5-4---------------------/9-7-5---/7-5-4-5~------/7~--|
|--7--------5--------3~----------------7--------5---------------------|
|-----------------------------5~--------------------------------------|
|---------------------------------------------------------------------|

   LAm      SOL      FA       SOL      LAm      SOL      FA       SOL
|---------------------------------------------------------------------|
|---------------------------------------------------------------------|
|---------------------------------------------------------------------|
|---------------------------------------------------------------------|
|----/7-5-3---/5-3-2----------5~---------/7-5-3---/5-3-2-3~------/5~--|
|--5--------3--------1~----------------5--------3---------------------|
|                                                                     |
|---------------------------------------------------------------------|
|---saquenlo----------------------------------------------------------|
|---o improvisen------------------------------------------------------|
|---------------------------------------------------------------------|
|---------------------------------------------------------------------|
|---------------------------------------------------------------------|

LAm MIm RE DO MIm LAm  DO     RE
|------------------------------------|
|------------------------------------|
|----------------------5------7------|
|----------------9-----5------7------|
|------/7-5-3-/7-9-----3------5------|
|--5-5-----------7-------------------|
|                                    |
|------------------------------------|
|---lo mismo-------------------------|
|------------------------------------|
|------------------------------------|
|------------------------------------|
|------------------------------------|

LAm      SOL
Que aquí    se vende
FA          SOL            LAm
   la esperanza y el porvenir,
LAm        DO          FA    SOL
   pero no lo podes comprar


LAm     SOL
Que ahí    se vende
FA          SOL            LAm
   la esperanza y el porvenir,
LAm        DO          FA    SOL
   pero no lo podes comprar


LAm      SOL
Que aquí    se vende
FA          SOL            LAm
   la esperanza y el porvenir,
LAm        DO          FA    SOL


LAm     SOL
Que ahí    se vende
FA          SOL            LAm
   la esperanza y el porvenir,
LAm        DO          RE                               LAm  MIm  FA  RE
   pero no lo podes compraaaaaaaaaaaaaaaaaaaaaaaaaaaaar-ar-ar-ar-ar-ar-ar-ar-ar-ar...


                 V8
Hermetica  Horcas  Rata Blanca  Logos

Freyre, Córdoba (Argentina)
Добавлено: 24.04.2016
Другие материалы по этой песне:
  • Аккорды и текст

Страница создана 24.04.2016
http://primanota.ru/oconnor/yo-se-que-sabes-chords.htm
Привет, Гость.
Предлагаем пройти революционный курс по гитаре.
Подарок от PrimaNota.Ru, забирай!