PrimaNota.ru - самый крупный в мире бесплатный архив песенных текстов, аккордов, табулатур и нот


Oconnor - Sólo Es Un Juego - таба, видео

Регистрация Запомнить меня
Войти через:  Facebook Google Twitter Vk Yandex Mail.ru

Oconnor - Sólo Es Un Juego - таба, видео

Печатать
Просмотров: 85
Intro:
            Aadd9                     F#mad11       Aadd9/F

  E|-------------0-----------|-----------------------0---------|
  B|----------0-----0--------|------------0------------0---0---|
  G|-------6-----------6-----|--------6-----6-----6------6-----|
  D|----7--------------------|-----7------------7--------------|
  A|-0-----------------------|--9-------------8----------------|
  E|-------------------------|---------------------------------|


  Aadd9
  Para que fingir,

  F#mad11    Aadd9/F
  a un alma sincera.

  Aadd9
  Y la magia que,

  F#mad11    Aadd9/F
  al final se quiebra.

  Aadd9
  Nunca hay que jurar,

  F#mad11    Aadd9/F
  lo que no se siente.

  Aadd9
  Tan sagrado es,

  F#mad11    Aadd9/F
  o solo es un juego...


Puente:

           Aadd9                  Badd11       x2

  E|-------------0---------------------0-------|
  B|----------0-----0----------------0---0-----|
  G|-------6-----------6----------8--------6---|
  D|----7----------------------9---------------|
  A|-------------------------------------------|
  E|-5-----------------------7-----------------|


        Dadd9                 Dadd9
  E|--------------0---------------------0-------|
  B|-----------10---10---------------10---10----|
  G|--------11--------11----------11--------11--|
  D|-----12--------------------12---------------|
  A|--------------------------------------------|
  E|---10--------------------10-----------------|


  Aadd9      Badd11             Dadd9   Dadd9
  Solo es un juego, q te hace infeliz

  Aadd9      Badd11             Dadd9   Dadd9
  fue un mal intento, y no vas a olvidar


Intro:   Aadd9       F#mad11  Aadd9/F


  Aadd9
  Debes enfrentar,

  F#mad11    Aadd9/F
  tanto frío nada mas.

  Aadd9
  Y el camino aquel,

  F#mad11    Aadd9/F
  a ninguna parte va.

  Aadd9
  ¿Cuánto tiempo mas,

  F#mad11    Aadd9/F
  el disfraz te ocultara?

  Aadd9
  Tan sagrado es,

  F#mad11    Aadd9/F
  o solo es un juego...


Puente:  Aadd9  Badd11 x2   Dadd9    Dadd9


  Aadd9      Badd11             Dadd9   Dadd9
  Solo es un juego, q te hace infeliz

  Aadd9      Badd11             Dadd9   Dadd9
  fue un mal intento, y no vas a olvidar


Puente:

       Emadd11      F#11/9      F7M/5      Bsus4add13

     E|--0------------0------------0------------0----|
     B|--0------------0------------0------------0----|
     G|--4------------3------------2------------1----|
     D|--5------------4------------3------------2----|
     A|--0------------0------------0------------0----|
     E|----------------------------------------------|


    Emadd11  F#11/9         F7M/5  Bsus4add13
    Noooooooooooooooo       mas    olvidar!!

   Emadd11  F#11/9         F7M/5  Bsus4add13
    Noooooooooooooooo       mas    olvidar!!

   Emadd11  F#11/9         F7M/5
    Noooooooooooooooo       Maaaass!!


Proximamente voy a subir el solo.
Para el que quiera esta canción en el guitar pro, mandenme un mail!!


     E|-15--------14--------------12-------------------------|
     B|----12--------12--------14----------------------------|
     G|-------12--------12-----------14----------------------|
     D|------------------------------------------------------|
     A|------------------------------------------------------|
     E|------------------------------------------------------|

     Emadd11  F#11/9         F7M/5  Bsus4add13
    Noooooooooooooooo       mas    olvidar!!

     Emadd11  F#11/9         F7M/5  Bsus4add13
    Noooooooooooooooo       mas    olvidar!!

     Emadd11  F#11/9         F7M/5
    Noooooooooooooooo       Maaaass!!


Intro:
            Aadd9                     F#mad11       Aadd9/F

  E|-------------0-----------|-----------------------0---------|
  B|----------0-----0--------|------------0------------0---0---|
  G|-------6-----------6-----|--------6-----6-----6------6-----|
  D|----7--------------------|-----7------------7--------------|
  A|-0-----------------------|--9-------------8----------------|
  E|-------------------------|---------------------------------|


   Aadd9          F#mad11    Aadd9/F
   Para que fingir!!


Suerte!! es un tema fácil, con una buena acústica suena expectacular.
Cualquier error o duda mandenme un mail.


AGUANTE O'CONNOR!!
Добавлено: 24.04.2016
Другие материалы по этой песне:
  • Аккорды и текст

Страница создана 24.04.2016
http://primanota.ru/oconnor/solo-es-un-juego-chords.htm
Привет, Гость.
Предлагаем пройти революционный курс по гитаре.
Подарок от PrimaNota.Ru, забирай!